ISO-10303-21;
HEADER;
FILE_DESCRIPTION(('no description'),'unknown implementation level');
FILE_NAME('EP01161200.stp','  ',('CIM GmbH Aachen'),('CADClick - KiM GmbH - www.kimweb.de'),'unknown preprocess','ACIS','unknown authorization');
FILE_SCHEMA(('automotive_design'));
ENDSEC;
DATA;
#1=MECHANICAL_DESIGN_GEOMETRIC_PRESENTATION_REPRESENTATION(' ',(#14,#15,#16,#17,#18,#19,#20,#21,#22,#23,#24,#25,#26,#27,#28,#29,#30,#31,#32,#33,#34,#35,#36,#37,#38,#39,#40,#41,#42,#43,#44,#45,#46,#47,#48,#49,#50,#51,#52,#53,#54,#55,#56,#57,#58,#59,#60,#61),#10);
#2=PRODUCT_DEFINITION_CONTEXT('',#62,'design');
#3=APPLICATION_PROTOCOL_DEFINITION('INTERNATIONAL STANDARD','automotive_design',1994,#62);
#4=PRODUCT_CATEGORY_RELATIONSHIP('NONE','NONE',#63,#64);
#5=SHAPE_DEFINITION_REPRESENTATION(#65,#66);
#6=PRODUCT_DEFINITION_CONTEXT('',#67,'design');
#7=APPLICATION_PROTOCOL_DEFINITION('INTERNATIONAL STANDARD','automotive_design',1994,#67);
#8=PRODUCT_CATEGORY_RELATIONSHIP('NONE','NONE',#68,#69);
#9=SHAPE_DEFINITION_REPRESENTATION(#70,#71);
#10= (GEOMETRIC_REPRESENTATION_CONTEXT(3)GLOBAL_UNCERTAINTY_ASSIGNED_CONTEXT((#74))GLOBAL_UNIT_ASSIGNED_CONTEXT((#76,#77,#78))REPRESENTATION_CONTEXT('NONE','WORKSPACE'));
#14=STYLED_ITEM('',(#80),#81);
#15=STYLED_ITEM('',(#82),#83);
#16=STYLED_ITEM('',(#84),#85);
#17=STYLED_ITEM('',(#86),#87);
#18=STYLED_ITEM('',(#88),#89);
#19=STYLED_ITEM('',(#90),#91);
#20=STYLED_ITEM('',(#92),#93);
#21=STYLED_ITEM('',(#94),#95);
#22=STYLED_ITEM('',(#96),#97);
#23=STYLED_ITEM('',(#98),#99);
#24=STYLED_ITEM('',(#100),#101);
#25=STYLED_ITEM('',(#102),#103);
#26=STYLED_ITEM('',(#104),#105);
#27=STYLED_ITEM('',(#106),#107);
#28=STYLED_ITEM('',(#108),#109);
#29=STYLED_ITEM('',(#110),#111);
#30=STYLED_ITEM('',(#112),#113);
#31=STYLED_ITEM('',(#114),#115);
#32=STYLED_ITEM('',(#116),#117);
#33=STYLED_ITEM('',(#118),#119);
#34=STYLED_ITEM('',(#120),#121);
#35=STYLED_ITEM('',(#122),#123);
#36=STYLED_ITEM('',(#124),#125);
#37=STYLED_ITEM('',(#126),#127);
#38=STYLED_ITEM('',(#128),#129);
#39=STYLED_ITEM('',(#130),#131);
#40=STYLED_ITEM('',(#132),#133);
#41=STYLED_ITEM('',(#134),#135);
#42=STYLED_ITEM('',(#136),#137);
#43=STYLED_ITEM('',(#138),#139);
#44=STYLED_ITEM('',(#140),#141);
#45=STYLED_ITEM('',(#142),#143);
#46=STYLED_ITEM('',(#144),#145);
#47=STYLED_ITEM('',(#146),#147);
#48=STYLED_ITEM('',(#148),#149);
#49=STYLED_ITEM('',(#150),#151);
#50=STYLED_ITEM('',(#152),#153);
#51=STYLED_ITEM('',(#154),#155);
#52=STYLED_ITEM('',(#156),#157);
#53=STYLED_ITEM('',(#158),#159);
#54=STYLED_ITEM('',(#160),#161);
#55=STYLED_ITEM('',(#162),#163);
#56=STYLED_ITEM('',(#164),#165);
#57=STYLED_ITEM('',(#166),#167);
#58=STYLED_ITEM('',(#168),#169);
#59=STYLED_ITEM('',(#170),#171);
#60=STYLED_ITEM('',(#172),#173);
#61=STYLED_ITEM('',(#174),#175);
#62=APPLICATION_CONTEXT(' ');
#63=PRODUCT_CATEGORY('part','NONE');
#64=PRODUCT_RELATED_PRODUCT_CATEGORY('detail',' ',(#176));
#65=PRODUCT_DEFINITION_SHAPE('NONE','NONE',#177);
#66=ADVANCED_BREP_SHAPE_REPRESENTATION('1',(#99,#178),#10);
#67=APPLICATION_CONTEXT(' ');
#68=PRODUCT_CATEGORY('part','NONE');
#69=PRODUCT_RELATED_PRODUCT_CATEGORY('detail',' ',(#179));
#70=PRODUCT_DEFINITION_SHAPE('NONE','NONE',#180);
#71=ADVANCED_BREP_SHAPE_REPRESENTATION('2',(#139,#181),#10);
#74=UNCERTAINTY_MEASURE_WITH_UNIT(LENGTH_MEASURE(1.0E-006),#76,'','');
#76= (CONVERSION_BASED_UNIT('MILLIMETRE',#184)LENGTH_UNIT()NAMED_UNIT(#187));
#77= (NAMED_UNIT(#189)PLANE_ANGLE_UNIT()SI_UNIT($,.RADIAN.));
#78= (NAMED_UNIT(#189)SOLID_ANGLE_UNIT()SI_UNIT($,.STERADIAN.));
#80=PRESENTATION_STYLE_ASSIGNMENT((#195));
#81=ADVANCED_FACE('',(#196),#197,.T.);
#82=PRESENTATION_STYLE_ASSIGNMENT((#198));
#83=VERTEX_POINT('',#199);
#84=PRESENTATION_STYLE_ASSIGNMENT((#200));
#85=EDGE_CURVE('',#175,#127,#201,.T.);
#86=PRESENTATION_STYLE_ASSIGNMENT((#202));
#87=EDGE_CURVE('',#121,#151,#203,.T.);
#88=PRESENTATION_STYLE_ASSIGNMENT((#204));
#89=ADVANCED_FACE('',(#205),#206,.T.);
#90=PRESENTATION_STYLE_ASSIGNMENT((#207));
#91=EDGE_CURVE('',#83,#123,#208,.T.);
#92=PRESENTATION_STYLE_ASSIGNMENT((#209));
#93=VERTEX_POINT('',#210);
#94=PRESENTATION_STYLE_ASSIGNMENT((#211));
#95=EDGE_CURVE('',#135,#173,#212,.T.);
#96=PRESENTATION_STYLE_ASSIGNMENT((#213));
#97=VERTEX_POINT('',#214);
#98=PRESENTATION_STYLE_ASSIGNMENT((#215));
#99=MANIFOLD_SOLID_BREP('1',#216);
#100=PRESENTATION_STYLE_ASSIGNMENT((#217));
#101=EDGE_CURVE('',#93,#97,#218,.T.);
#102=PRESENTATION_STYLE_ASSIGNMENT((#219));
#103=EDGE_CURVE('',#175,#115,#220,.T.);
#104=PRESENTATION_STYLE_ASSIGNMENT((#221));
#105=EDGE_CURVE('',#121,#165,#222,.T.);
#106=PRESENTATION_STYLE_ASSIGNMENT((#223));
#107=VERTEX_POINT('',#224);
#108=PRESENTATION_STYLE_ASSIGNMENT((#225));
#109=ADVANCED_FACE('',(#226),#227,.T.);
#110=PRESENTATION_STYLE_ASSIGNMENT((#228));
#111=ADVANCED_FACE('',(#229),#230,.T.);
#112=PRESENTATION_STYLE_ASSIGNMENT((#231));
#113=EDGE_CURVE('',#135,#93,#232,.T.);
#114=PRESENTATION_STYLE_ASSIGNMENT((#233));
#115=VERTEX_POINT('',#234);
#116=PRESENTATION_STYLE_ASSIGNMENT((#235));
#117=EDGE_CURVE('',#143,#97,#236,.T.);
#118=PRESENTATION_STYLE_ASSIGNMENT((#237));
#119=ADVANCED_FACE('',(#238),#239,.T.);
#120=PRESENTATION_STYLE_ASSIGNMENT((#240));
#121=VERTEX_POINT('',#241);
#122=PRESENTATION_STYLE_ASSIGNMENT((#242));
#123=VERTEX_POINT('',#243);
#124=PRESENTATION_STYLE_ASSIGNMENT((#244));
#125=EDGE_CURVE('',#151,#121,#245,.T.);
#126=PRESENTATION_STYLE_ASSIGNMENT((#246));
#127=VERTEX_POINT('',#247);
#128=PRESENTATION_STYLE_ASSIGNMENT((#248));
#129=ADVANCED_FACE('',(#249),#250,.T.);
#130=PRESENTATION_STYLE_ASSIGNMENT((#251));
#131=EDGE_CURVE('',#127,#165,#252,.T.);
#132=PRESENTATION_STYLE_ASSIGNMENT((#253));
#133=ADVANCED_FACE('',(#254),#255,.T.);
#134=PRESENTATION_STYLE_ASSIGNMENT((#256));
#135=VERTEX_POINT('',#257);
#136=PRESENTATION_STYLE_ASSIGNMENT((#258));
#137=EDGE_CURVE('',#107,#135,#259,.T.);
#138=PRESENTATION_STYLE_ASSIGNMENT((#260));
#139=MANIFOLD_SOLID_BREP('2',#261);
#140=PRESENTATION_STYLE_ASSIGNMENT((#262));
#141=EDGE_CURVE('',#123,#151,#263,.T.);
#142=PRESENTATION_STYLE_ASSIGNMENT((#264));
#143=VERTEX_POINT('',#265);
#144=PRESENTATION_STYLE_ASSIGNMENT((#266));
#145=EDGE_CURVE('',#93,#173,#267,.T.);
#146=PRESENTATION_STYLE_ASSIGNMENT((#268));
#147=EDGE_CURVE('',#83,#115,#269,.T.);
#148=PRESENTATION_STYLE_ASSIGNMENT((#270));
#149=EDGE_CURVE('',#97,#143,#271,.T.);
#150=PRESENTATION_STYLE_ASSIGNMENT((#272));
#151=VERTEX_POINT('',#273);
#152=PRESENTATION_STYLE_ASSIGNMENT((#274));
#153=EDGE_CURVE('',#173,#107,#275,.T.);
#154=PRESENTATION_STYLE_ASSIGNMENT((#276));
#155=ADVANCED_FACE('',(#277),#278,.T.);
#156=PRESENTATION_STYLE_ASSIGNMENT((#279));
#157=ADVANCED_FACE('',(#280),#281,.T.);
#158=PRESENTATION_STYLE_ASSIGNMENT((#282));
#159=ADVANCED_FACE('',(#283),#284,.T.);
#160=PRESENTATION_STYLE_ASSIGNMENT((#285));
#161=EDGE_CURVE('',#143,#107,#286,.T.);
#162=PRESENTATION_STYLE_ASSIGNMENT((#287));
#163=EDGE_CURVE('',#165,#83,#288,.T.);
#164=PRESENTATION_STYLE_ASSIGNMENT((#289));
#165=VERTEX_POINT('',#290);
#166=PRESENTATION_STYLE_ASSIGNMENT((#291));
#167=EDGE_CURVE('',#115,#175,#292,.T.);
#168=PRESENTATION_STYLE_ASSIGNMENT((#293));
#169=EDGE_CURVE('',#123,#127,#294,.T.);
#170=PRESENTATION_STYLE_ASSIGNMENT((#295));
#171=ADVANCED_FACE('',(#296),#297,.T.);
#172=PRESENTATION_STYLE_ASSIGNMENT((#298));
#173=VERTEX_POINT('',#299);
#174=PRESENTATION_STYLE_ASSIGNMENT((#300));
#175=VERTEX_POINT('',#301);
#176=PRODUCT('1','1','PART-1-DESC',(#302));
#177=PRODUCT_DEFINITION('NONE','NONE',#303,#2);
#178=AXIS2_PLACEMENT_3D('',#304,#305,#306);
#179=PRODUCT('2','2','PART-2-DESC',(#307));
#180=PRODUCT_DEFINITION('NONE','NONE',#308,#6);
#181=AXIS2_PLACEMENT_3D('',#309,#310,#311);
#184=LENGTH_MEASURE_WITH_UNIT(LENGTH_MEASURE(1.0),#312);
#187=DIMENSIONAL_EXPONENTS(1.0,0.0,0.0,0.0,0.0,0.0,0.0);
#189=DIMENSIONAL_EXPONENTS(0.0,0.0,0.0,0.0,0.0,0.0,0.0);
#195=SURFACE_STYLE_USAGE(.BOTH.,#313);
#196=FACE_OUTER_BOUND('',#314,.T.);
#197=CYLINDRICAL_SURFACE('',#315,6.0);
#198=POINT_STYLE(' ',#316,POSITIVE_LENGTH_MEASURE(1.0E-006),#317);
#199=CARTESIAN_POINT('',(7.34763812293426E-016,-6.0,-0.600000000000001));
#200=CURVE_STYLE('',#318,POSITIVE_LENGTH_MEASURE(1.0E-006),#319);
#201=LINE('',#320,#321);
#202=CURVE_STYLE('',#322,POSITIVE_LENGTH_MEASURE(1.0E-006),#323);
#203=CIRCLE('',#324,6.0);
#204=SURFACE_STYLE_USAGE(.BOTH.,#325);
#205=FACE_OUTER_BOUND('',#326,.T.);
#206=CONICAL_SURFACE('',#327,5.7,0.785398163397447);
#207=CURVE_STYLE('',#328,POSITIVE_LENGTH_MEASURE(1.0E-006),#329);
#208=CIRCLE('',#330,6.0);
#209=POINT_STYLE(' ',#331,POSITIVE_LENGTH_MEASURE(1.0E-006),#332);
#210=CARTESIAN_POINT('',(-3.0,-5.19615242270663,-74.0));
#211=CURVE_STYLE('',#333,POSITIVE_LENGTH_MEASURE(1.0E-006),#334);
#212=CIRCLE('',#335,5.99999999999999);
#213=POINT_STYLE(' ',#336,POSITIVE_LENGTH_MEASURE(1.0E-006),#337);
#214=CARTESIAN_POINT('',(-3.0,-5.19615242270663,-67.0));
#215=SURFACE_STYLE_USAGE(.BOTH.,#338);
#216=CLOSED_SHELL('',(#109,#119,#111,#89,#129,#155));
#217=CURVE_STYLE('',#339,POSITIVE_LENGTH_MEASURE(1.0E-006),#340);
#218=LINE('',#341,#342);
#219=CURVE_STYLE('',#343,POSITIVE_LENGTH_MEASURE(1.0E-006),#344);
#220=CIRCLE('',#345,5.4);
#221=CURVE_STYLE('',#346,POSITIVE_LENGTH_MEASURE(1.0E-006),#347);
#222=LINE('',#348,#349);
#223=POINT_STYLE(' ',#350,POSITIVE_LENGTH_MEASURE(1.0E-006),#351);
#224=CARTESIAN_POINT('',(3.0,5.19615242270663,-74.0));
#225=SURFACE_STYLE_USAGE(.BOTH.,#352);
#226=FACE_OUTER_BOUND('',#353,.T.);
#227=CYLINDRICAL_SURFACE('',#354,6.0);
#228=SURFACE_STYLE_USAGE(.BOTH.,#355);
#229=FACE_OUTER_BOUND('',#356,.T.);
#230=PLANE('',#357);
#231=CURVE_STYLE('',#358,POSITIVE_LENGTH_MEASURE(1.0E-006),#359);
#232=CIRCLE('',#360,6.0);
#233=POINT_STYLE(' ',#361,POSITIVE_LENGTH_MEASURE(1.0E-006),#362);
#234=CARTESIAN_POINT('',(6.61287431064084E-016,-5.4,0.0));
#235=CURVE_STYLE('',#363,POSITIVE_LENGTH_MEASURE(1.0E-006),#364);
#236=CIRCLE('',#365,6.0);
#237=SURFACE_STYLE_USAGE(.BOTH.,#366);
#238=FACE_OUTER_BOUND('',#367,.T.);
#239=CONICAL_SURFACE('',#368,5.7,0.785398163397447);
#240=POINT_STYLE(' ',#369,POSITIVE_LENGTH_MEASURE(1.0E-006),#370);
#241=CARTESIAN_POINT('',(6.0,7.34763812293426E-016,-67.0));
#242=POINT_STYLE(' ',#371,POSITIVE_LENGTH_MEASURE(1.0E-006),#372);
#243=CARTESIAN_POINT('',(-6.0,-7.34763812293426E-016,-0.600000000000001));
#244=CURVE_STYLE('',#373,POSITIVE_LENGTH_MEASURE(1.0E-006),#374);
#245=CIRCLE('',#375,6.0);
#246=POINT_STYLE(' ',#376,POSITIVE_LENGTH_MEASURE(1.0E-006),#377);
#247=CARTESIAN_POINT('',(0.0,6.0,-0.600000000000001));
#248=SURFACE_STYLE_USAGE(.BOTH.,#378);
#249=FACE_OUTER_BOUND('',#379,.T.);
#250=CYLINDRICAL_SURFACE('',#380,6.0);
#251=CURVE_STYLE('',#381,POSITIVE_LENGTH_MEASURE(1.0E-006),#382);
#252=CIRCLE('',#383,6.0);
#253=SURFACE_STYLE_USAGE(.BOTH.,#384);
#254=FACE_OUTER_BOUND('',#385,.T.);
#255=PLANE('',#386);
#256=POINT_STYLE(' ',#387,POSITIVE_LENGTH_MEASURE(1.0E-006),#388);
#257=CARTESIAN_POINT('',(-1.74027029774831E-030,-6.0,-74.0));
#258=CURVE_STYLE('',#389,POSITIVE_LENGTH_MEASURE(1.0E-006),#390);
#259=CIRCLE('',#391,6.0);
#260=SURFACE_STYLE_USAGE(.BOTH.,#392);
#261=CLOSED_SHELL('',(#171,#157,#159,#133,#81));
#262=CURVE_STYLE('',#393,POSITIVE_LENGTH_MEASURE(1.0E-006),#394);
#263=LINE('',#395,#396);
#264=POINT_STYLE(' ',#397,POSITIVE_LENGTH_MEASURE(1.0E-006),#398);
#265=CARTESIAN_POINT('',(3.0,5.19615242270663,-67.0));
#266=CURVE_STYLE('',#399,POSITIVE_LENGTH_MEASURE(1.0E-006),#400);
#267=CIRCLE('',#401,6.0);
#268=CURVE_STYLE('',#402,POSITIVE_LENGTH_MEASURE(1.0E-006),#403);
#269=LINE('',#404,#405);
#270=CURVE_STYLE('',#406,POSITIVE_LENGTH_MEASURE(1.0E-006),#407);
#271=CIRCLE('',#408,6.0);
#272=POINT_STYLE(' ',#409,POSITIVE_LENGTH_MEASURE(1.0E-006),#410);
#273=CARTESIAN_POINT('',(-6.0,0.0,-67.0));
#274=CURVE_STYLE('',#411,POSITIVE_LENGTH_MEASURE(1.0E-006),#412);
#275=CIRCLE('',#413,6.0);
#276=SURFACE_STYLE_USAGE(.BOTH.,#414);
#277=FACE_OUTER_BOUND('',#415,.T.);
#278=PLANE('',#416);
#279=SURFACE_STYLE_USAGE(.BOTH.,#417);
#280=FACE_OUTER_BOUND('',#418,.T.);
#281=SPHERICAL_SURFACE('',#419,5.99999999999999);
#282=SURFACE_STYLE_USAGE(.BOTH.,#420);
#283=FACE_OUTER_BOUND('',#421,.T.);
#284=SPHERICAL_SURFACE('',#422,5.99999999999999);
#285=CURVE_STYLE('',#423,POSITIVE_LENGTH_MEASURE(1.0E-006),#424);
#286=LINE('',#425,#426);
#287=CURVE_STYLE('',#427,POSITIVE_LENGTH_MEASURE(1.0E-006),#428);
#288=CIRCLE('',#429,6.0);
#289=POINT_STYLE(' ',#430,POSITIVE_LENGTH_MEASURE(1.0E-006),#431);
#290=CARTESIAN_POINT('',(6.0,7.34763812293426E-016,-0.600000000000001));
#291=CURVE_STYLE('',#432,POSITIVE_LENGTH_MEASURE(1.0E-006),#433);
#292=CIRCLE('',#434,5.4);
#293=CURVE_STYLE('',#435,POSITIVE_LENGTH_MEASURE(1.0E-006),#436);
#294=CIRCLE('',#437,6.0);
#295=SURFACE_STYLE_USAGE(.BOTH.,#438);
#296=FACE_OUTER_BOUND('',#439,.T.);
#297=CYLINDRICAL_SURFACE('',#440,6.0);
#298=POINT_STYLE(' ',#441,POSITIVE_LENGTH_MEASURE(1.0E-006),#442);
#299=CARTESIAN_POINT('',(-1.74027029774831E-030,6.0,-74.0));
#300=POINT_STYLE(' ',#443,POSITIVE_LENGTH_MEASURE(1.0E-006),#444);
#301=CARTESIAN_POINT('',(0.0,5.4,0.0));
#302=PRODUCT_CONTEXT('',#62,'mechanical');
#303=PRODUCT_DEFINITION_FORMATION_WITH_SPECIFIED_SOURCE(' ','NONE',#176,.NOT_KNOWN.);
#304=CARTESIAN_POINT('',(0.0,0.0,0.0));
#305=DIRECTION('',(0.0,0.0,1.0));
#306=DIRECTION('',(1.0,0.0,0.0));
#307=PRODUCT_CONTEXT('',#67,'mechanical');
#308=PRODUCT_DEFINITION_FORMATION_WITH_SPECIFIED_SOURCE(' ','NONE',#179,.NOT_KNOWN.);
#309=CARTESIAN_POINT('',(0.0,0.0,0.0));
#310=DIRECTION('',(0.0,0.0,1.0));
#311=DIRECTION('',(1.0,0.0,0.0));
#312= (NAMED_UNIT(#187)LENGTH_UNIT()SI_UNIT(.MILLI.,.METRE.));
#313=SURFACE_SIDE_STYLE('',(#446));
#314=EDGE_LOOP('',(#447,#448,#449,#450,#451));
#315=AXIS2_PLACEMENT_3D('',#452,#453,#454);
#316=PRE_DEFINED_MARKER('');
#317=COLOUR_RGB('',0.498039215803146,0.498039215803146,0.498039215803146);
#318=DRAUGHTING_PRE_DEFINED_CURVE_FONT('continuous');
#319=COLOUR_RGB('',0.498039215803146,0.498039215803146,0.498039215803146);
#320=CARTESIAN_POINT('',(-6.98025621678755E-016,5.7,-0.300000000000004));
#321=VECTOR('',#455,1.0);
#322=DRAUGHTING_PRE_DEFINED_CURVE_FONT('continuous');
#323=COLOUR_RGB('',0.498039215803146,0.498039215803146,0.498039215803146);
#324=AXIS2_PLACEMENT_3D('',#456,#457,#458);
#325=SURFACE_SIDE_STYLE('',(#459));
#326=EDGE_LOOP('',(#460,#461,#462,#463,#464));
#327=AXIS2_PLACEMENT_3D('',#465,#466,#467);
#328=DRAUGHTING_PRE_DEFINED_CURVE_FONT('continuous');
#329=COLOUR_RGB('',0.498039215803146,0.498039215803146,0.498039215803146);
#330=AXIS2_PLACEMENT_3D('',#468,#469,#470);
#331=PRE_DEFINED_MARKER('');
#332=COLOUR_RGB('',0.800000011920929,0.800000011920929,0.800000011920929);
#333=DRAUGHTING_PRE_DEFINED_CURVE_FONT('continuous');
#334=COLOUR_RGB('',0.800000011920929,0.800000011920929,0.800000011920929);
#335=AXIS2_PLACEMENT_3D('',#471,#472,#473);
#336=PRE_DEFINED_MARKER('');
#337=COLOUR_RGB('',0.800000011920929,0.800000011920929,0.800000011920929);
#338=SURFACE_SIDE_STYLE('',(#474));
#339=DRAUGHTING_PRE_DEFINED_CURVE_FONT('continuous');
#340=COLOUR_RGB('',0.800000011920929,0.800000011920929,0.800000011920929);
#341=CARTESIAN_POINT('',(-3.0,-5.19615242270663,-70.5));
#342=VECTOR('',#475,1.0);
#343=DRAUGHTING_PRE_DEFINED_CURVE_FONT('continuous');
#344=COLOUR_RGB('',0.498039215803146,0.498039215803146,0.498039215803146);
#345=AXIS2_PLACEMENT_3D('',#476,#477,#478);
#346=DRAUGHTING_PRE_DEFINED_CURVE_FONT('continuous');
#347=COLOUR_RGB('',0.498039215803146,0.498039215803146,0.498039215803146);
#348=CARTESIAN_POINT('',(6.0,7.34763812293426E-016,-56.0));
#349=VECTOR('',#479,1.0);
#350=PRE_DEFINED_MARKER('');
#351=COLOUR_RGB('',0.800000011920929,0.800000011920929,0.800000011920929);
#352=SURFACE_SIDE_STYLE('',(#480));
#353=EDGE_LOOP('',(#481,#482,#483,#484,#485));
#354=AXIS2_PLACEMENT_3D('',#486,#487,#488);
#355=SURFACE_SIDE_STYLE('',(#489));
#356=EDGE_LOOP('',(#490,#491));
#357=AXIS2_PLACEMENT_3D('',#492,#493,#494);
#358=DRAUGHTING_PRE_DEFINED_CURVE_FONT('continuous');
#359=COLOUR_RGB('',0.800000011920929,0.800000011920929,0.800000011920929);
#360=AXIS2_PLACEMENT_3D('',#495,#496,#497);
#361=PRE_DEFINED_MARKER('');
#362=COLOUR_RGB('',0.498039215803146,0.498039215803146,0.498039215803146);
#363=DRAUGHTING_PRE_DEFINED_CURVE_FONT('continuous');
#364=COLOUR_RGB('',0.800000011920929,0.800000011920929,0.800000011920929);
#365=AXIS2_PLACEMENT_3D('',#498,#499,#500);
#366=SURFACE_SIDE_STYLE('',(#501));
#367=EDGE_LOOP('',(#502,#503,#504,#505,#506));
#368=AXIS2_PLACEMENT_3D('',#507,#508,#509);
#369=PRE_DEFINED_MARKER('');
#370=COLOUR_RGB('',0.498039215803146,0.498039215803146,0.498039215803146);
#371=PRE_DEFINED_MARKER('');
#372=COLOUR_RGB('',0.498039215803146,0.498039215803146,0.498039215803146);
#373=DRAUGHTING_PRE_DEFINED_CURVE_FONT('continuous');
#374=COLOUR_RGB('',0.498039215803146,0.498039215803146,0.498039215803146);
#375=AXIS2_PLACEMENT_3D('',#510,#511,#512);
#376=PRE_DEFINED_MARKER('');
#377=COLOUR_RGB('',0.498039215803146,0.498039215803146,0.498039215803146);
#378=SURFACE_SIDE_STYLE('',(#513));
#379=EDGE_LOOP('',(#514,#515,#516,#517,#518));
#380=AXIS2_PLACEMENT_3D('',#519,#520,#521);
#381=DRAUGHTING_PRE_DEFINED_CURVE_FONT('continuous');
#382=COLOUR_RGB('',0.498039215803146,0.498039215803146,0.498039215803146);
#383=AXIS2_PLACEMENT_3D('',#522,#523,#524);
#384=SURFACE_SIDE_STYLE('',(#525));
#385=EDGE_LOOP('',(#526,#527));
#386=AXIS2_PLACEMENT_3D('',#528,#529,#530);
#387=PRE_DEFINED_MARKER('');
#388=COLOUR_RGB('',0.800000011920929,0.800000011920929,0.800000011920929);
#389=DRAUGHTING_PRE_DEFINED_CURVE_FONT('continuous');
#390=COLOUR_RGB('',0.800000011920929,0.800000011920929,0.800000011920929);
#391=AXIS2_PLACEMENT_3D('',#531,#532,#533);
#392=SURFACE_SIDE_STYLE('',(#534));
#393=DRAUGHTING_PRE_DEFINED_CURVE_FONT('continuous');
#394=COLOUR_RGB('',0.498039215803146,0.498039215803146,0.498039215803146);
#395=CARTESIAN_POINT('',(-6.0,-7.34763812293426E-016,-56.0));
#396=VECTOR('',#535,1.0);
#397=PRE_DEFINED_MARKER('');
#398=COLOUR_RGB('',0.800000011920929,0.800000011920929,0.800000011920929);
#399=DRAUGHTING_PRE_DEFINED_CURVE_FONT('continuous');
#400=COLOUR_RGB('',0.800000011920929,0.800000011920929,0.800000011920929);
#401=AXIS2_PLACEMENT_3D('',#536,#537,#538);
#402=DRAUGHTING_PRE_DEFINED_CURVE_FONT('continuous');
#403=COLOUR_RGB('',0.498039215803146,0.498039215803146,0.498039215803146);
#404=CARTESIAN_POINT('',(6.98025621678755E-016,-5.7,-0.300000000000004));
#405=VECTOR('',#539,1.0);
#406=DRAUGHTING_PRE_DEFINED_CURVE_FONT('continuous');
#407=COLOUR_RGB('',0.800000011920929,0.800000011920929,0.800000011920929);
#408=AXIS2_PLACEMENT_3D('',#540,#541,#542);
#409=PRE_DEFINED_MARKER('');
#410=COLOUR_RGB('',0.498039215803146,0.498039215803146,0.498039215803146);
#411=DRAUGHTING_PRE_DEFINED_CURVE_FONT('continuous');
#412=COLOUR_RGB('',0.800000011920929,0.800000011920929,0.800000011920929);
#413=AXIS2_PLACEMENT_3D('',#543,#544,#545);
#414=SURFACE_SIDE_STYLE('',(#546));
#415=EDGE_LOOP('',(#547,#548));
#416=AXIS2_PLACEMENT_3D('',#549,#550,#551);
#417=SURFACE_SIDE_STYLE('',(#552));
#418=EDGE_LOOP('',(#553,#554,#555));
#419=AXIS2_PLACEMENT_3D('',#556,#557,#558);
#420=SURFACE_SIDE_STYLE('',(#559));
#421=EDGE_LOOP('',(#560,#561,#562));
#422=AXIS2_PLACEMENT_3D('',#563,#564,#565);
#423=DRAUGHTING_PRE_DEFINED_CURVE_FONT('continuous');
#424=COLOUR_RGB('',0.800000011920929,0.800000011920929,0.800000011920929);
#425=CARTESIAN_POINT('',(3.0,5.19615242270663,-70.5));
#426=VECTOR('',#566,1.0);
#427=DRAUGHTING_PRE_DEFINED_CURVE_FONT('continuous');
#428=COLOUR_RGB('',0.498039215803146,0.498039215803146,0.498039215803146);
#429=AXIS2_PLACEMENT_3D('',#567,#568,#569);
#430=PRE_DEFINED_MARKER('');
#431=COLOUR_RGB('',0.498039215803146,0.498039215803146,0.498039215803146);
#432=DRAUGHTING_PRE_DEFINED_CURVE_FONT('continuous');
#433=COLOUR_RGB('',0.498039215803146,0.498039215803146,0.498039215803146);
#434=AXIS2_PLACEMENT_3D('',#570,#571,#572);
#435=DRAUGHTING_PRE_DEFINED_CURVE_FONT('continuous');
#436=COLOUR_RGB('',0.498039215803146,0.498039215803146,0.498039215803146);
#437=AXIS2_PLACEMENT_3D('',#573,#574,#575);
#438=SURFACE_SIDE_STYLE('',(#576));
#439=EDGE_LOOP('',(#577,#578,#579,#580,#581));
#440=AXIS2_PLACEMENT_3D('',#582,#583,#584);
#441=PRE_DEFINED_MARKER('');
#442=COLOUR_RGB('',0.800000011920929,0.800000011920929,0.800000011920929);
#443=PRE_DEFINED_MARKER('');
#444=COLOUR_RGB('',0.498039215803146,0.498039215803146,0.498039215803146);
#446=SURFACE_STYLE_FILL_AREA(#585);
#447=ORIENTED_EDGE('',*,*,#161,.T.);
#448=ORIENTED_EDGE('',*,*,#153,.F.);
#449=ORIENTED_EDGE('',*,*,#145,.F.);
#450=ORIENTED_EDGE('',*,*,#101,.T.);
#451=ORIENTED_EDGE('',*,*,#149,.T.);
#452=CARTESIAN_POINT('',(0.0,0.0,-70.5));
#453=DIRECTION('',(-0.0,-0.0,1.0));
#454=DIRECTION('',(0.5,0.866025403784439,0.0));
#455=DIRECTION('',(-8.65927457071934E-017,0.707106781186546,-0.707106781186549));
#456=CARTESIAN_POINT('',(0.0,0.0,-67.0));
#457=DIRECTION('',(0.0,0.0,-1.0));
#458=DIRECTION('',(-1.0,0.0,0.0));
#459=SURFACE_STYLE_FILL_AREA(#586);
#460=ORIENTED_EDGE('',*,*,#85,.T.);
#461=ORIENTED_EDGE('',*,*,#169,.F.);
#462=ORIENTED_EDGE('',*,*,#91,.F.);
#463=ORIENTED_EDGE('',*,*,#147,.T.);
#464=ORIENTED_EDGE('',*,*,#167,.T.);
#465=CARTESIAN_POINT('',(0.0,0.0,-0.300000000000004));
#466=DIRECTION('',(0.0,-0.0,-1.0));
#467=DIRECTION('',(0.0,1.0,0.0));
#468=CARTESIAN_POINT('',(0.0,0.0,-0.600000000000001));
#469=DIRECTION('',(0.0,0.0,-1.0));
#470=DIRECTION('',(0.0,1.0,0.0));
#471=CARTESIAN_POINT('',(0.0,0.0,-74.0));
#472=DIRECTION('',(1.0,0.0,1.22460635382238E-016));
#473=DIRECTION('',(-1.22460635382238E-016,0.0,1.0));
#474=SURFACE_STYLE_FILL_AREA(#587);
#475=DIRECTION('',(-0.0,-0.0,1.0));
#476=CARTESIAN_POINT('',(0.0,0.0,0.0));
#477=DIRECTION('',(0.0,0.0,-1.0));
#478=DIRECTION('',(0.0,1.0,0.0));
#479=DIRECTION('',(-0.0,-0.0,1.0));
#480=SURFACE_STYLE_FILL_AREA(#588);
#481=ORIENTED_EDGE('',*,*,#141,.F.);
#482=ORIENTED_EDGE('',*,*,#169,.T.);
#483=ORIENTED_EDGE('',*,*,#131,.T.);
#484=ORIENTED_EDGE('',*,*,#105,.F.);
#485=ORIENTED_EDGE('',*,*,#125,.F.);
#486=CARTESIAN_POINT('',(0.0,0.0,-56.0));
#487=DIRECTION('',(-0.0,-0.0,1.0));
#488=DIRECTION('',(-1.0,0.0,0.0));
#489=SURFACE_STYLE_FILL_AREA(#589);
#490=ORIENTED_EDGE('',*,*,#103,.F.);
#491=ORIENTED_EDGE('',*,*,#167,.F.);
#492=CARTESIAN_POINT('',(0.0,2.7,0.0));
#493=DIRECTION('',(-0.0,0.0,1.0));
#494=DIRECTION('',(0.0,-1.0,0.0));
#495=CARTESIAN_POINT('',(0.0,0.0,-74.0));
#496=DIRECTION('',(0.0,0.0,-1.0));
#497=DIRECTION('',(0.5,0.866025403784439,0.0));
#498=CARTESIAN_POINT('',(0.0,0.0,-67.0));
#499=DIRECTION('',(0.0,0.0,-1.0));
#500=DIRECTION('',(0.5,0.866025403784439,0.0));
#501=SURFACE_STYLE_FILL_AREA(#590);
#502=ORIENTED_EDGE('',*,*,#85,.F.);
#503=ORIENTED_EDGE('',*,*,#103,.T.);
#504=ORIENTED_EDGE('',*,*,#147,.F.);
#505=ORIENTED_EDGE('',*,*,#163,.F.);
#506=ORIENTED_EDGE('',*,*,#131,.F.);
#507=CARTESIAN_POINT('',(0.0,0.0,-0.300000000000004));
#508=DIRECTION('',(0.0,-0.0,-1.0));
#509=DIRECTION('',(0.0,1.0,0.0));
#510=CARTESIAN_POINT('',(0.0,0.0,-67.0));
#511=DIRECTION('',(0.0,0.0,-1.0));
#512=DIRECTION('',(-1.0,0.0,0.0));
#513=SURFACE_STYLE_FILL_AREA(#591);
#514=ORIENTED_EDGE('',*,*,#141,.T.);
#515=ORIENTED_EDGE('',*,*,#87,.F.);
#516=ORIENTED_EDGE('',*,*,#105,.T.);
#517=ORIENTED_EDGE('',*,*,#163,.T.);
#518=ORIENTED_EDGE('',*,*,#91,.T.);
#519=CARTESIAN_POINT('',(0.0,0.0,-56.0));
#520=DIRECTION('',(-0.0,-0.0,1.0));
#521=DIRECTION('',(-1.0,0.0,0.0));
#522=CARTESIAN_POINT('',(0.0,0.0,-0.600000000000001));
#523=DIRECTION('',(0.0,0.0,-1.0));
#524=DIRECTION('',(0.0,1.0,0.0));
#525=SURFACE_STYLE_FILL_AREA(#592);
#526=ORIENTED_EDGE('',*,*,#117,.F.);
#527=ORIENTED_EDGE('',*,*,#149,.F.);
#528=CARTESIAN_POINT('',(1.5,2.59807621135332,-67.0));
#529=DIRECTION('',(0.0,0.0,1.0));
#530=DIRECTION('',(-0.5,-0.866025403784439,0.0));
#531=CARTESIAN_POINT('',(0.0,0.0,-74.0));
#532=DIRECTION('',(0.0,0.0,-1.0));
#533=DIRECTION('',(0.5,0.866025403784439,0.0));
#534=SURFACE_STYLE_FILL_AREA(#593);
#535=DIRECTION('',(0.0,0.0,-1.0));
#536=CARTESIAN_POINT('',(0.0,0.0,-74.0));
#537=DIRECTION('',(0.0,0.0,-1.0));
#538=DIRECTION('',(0.5,0.866025403784439,0.0));
#539=DIRECTION('',(-8.65927457071934E-017,0.707106781186546,0.707106781186549));
#540=CARTESIAN_POINT('',(0.0,0.0,-67.0));
#541=DIRECTION('',(0.0,0.0,-1.0));
#542=DIRECTION('',(0.5,0.866025403784439,0.0));
#543=CARTESIAN_POINT('',(0.0,0.0,-74.0));
#544=DIRECTION('',(0.0,0.0,-1.0));
#545=DIRECTION('',(0.5,0.866025403784439,0.0));
#546=SURFACE_STYLE_FILL_AREA(#594);
#547=ORIENTED_EDGE('',*,*,#125,.T.);
#548=ORIENTED_EDGE('',*,*,#87,.T.);
#549=CARTESIAN_POINT('',(-3.0,0.0,-67.0));
#550=DIRECTION('',(0.0,0.0,-1.0));
#551=DIRECTION('',(-1.0,0.0,0.0));
#552=SURFACE_STYLE_FILL_AREA(#595);
#553=ORIENTED_EDGE('',*,*,#95,.F.);
#554=ORIENTED_EDGE('',*,*,#113,.T.);
#555=ORIENTED_EDGE('',*,*,#145,.T.);
#556=CARTESIAN_POINT('',(0.0,0.0,-74.0));
#557=DIRECTION('',(0.0,1.0,0.0));
#558=DIRECTION('',(0.0,0.0,-1.0));
#559=SURFACE_STYLE_FILL_AREA(#596);
#560=ORIENTED_EDGE('',*,*,#95,.T.);
#561=ORIENTED_EDGE('',*,*,#153,.T.);
#562=ORIENTED_EDGE('',*,*,#137,.T.);
#563=CARTESIAN_POINT('',(0.0,0.0,-74.0));
#564=DIRECTION('',(0.0,1.0,0.0));
#565=DIRECTION('',(0.0,0.0,-1.0));
#566=DIRECTION('',(0.0,0.0,-1.0));
#567=CARTESIAN_POINT('',(0.0,0.0,-0.600000000000001));
#568=DIRECTION('',(0.0,0.0,-1.0));
#569=DIRECTION('',(0.0,1.0,0.0));
#570=CARTESIAN_POINT('',(0.0,0.0,0.0));
#571=DIRECTION('',(0.0,0.0,-1.0));
#572=DIRECTION('',(0.0,1.0,0.0));
#573=CARTESIAN_POINT('',(0.0,0.0,-0.600000000000001));
#574=DIRECTION('',(0.0,0.0,-1.0));
#575=DIRECTION('',(0.0,1.0,0.0));
#576=SURFACE_STYLE_FILL_AREA(#597);
#577=ORIENTED_EDGE('',*,*,#161,.F.);
#578=ORIENTED_EDGE('',*,*,#117,.T.);
#579=ORIENTED_EDGE('',*,*,#101,.F.);
#580=ORIENTED_EDGE('',*,*,#113,.F.);
#581=ORIENTED_EDGE('',*,*,#137,.F.);
#582=CARTESIAN_POINT('',(0.0,0.0,-70.5));
#583=DIRECTION('',(-0.0,-0.0,1.0));
#584=DIRECTION('',(0.5,0.866025403784439,0.0));
#585=FILL_AREA_STYLE('',(#598));
#586=FILL_AREA_STYLE('',(#599));
#587=FILL_AREA_STYLE('',(#600));
#588=FILL_AREA_STYLE('',(#601));
#589=FILL_AREA_STYLE('',(#602));
#590=FILL_AREA_STYLE('',(#603));
#591=FILL_AREA_STYLE('',(#604));
#592=FILL_AREA_STYLE('',(#605));
#593=FILL_AREA_STYLE('',(#606));
#594=FILL_AREA_STYLE('',(#607));
#595=FILL_AREA_STYLE('',(#608));
#596=FILL_AREA_STYLE('',(#609));
#597=FILL_AREA_STYLE('',(#610));
#598=FILL_AREA_STYLE_COLOUR('',#611);
#599=FILL_AREA_STYLE_COLOUR('',#612);
#600=FILL_AREA_STYLE_COLOUR('',#613);
#601=FILL_AREA_STYLE_COLOUR('',#614);
#602=FILL_AREA_STYLE_COLOUR('',#615);
#603=FILL_AREA_STYLE_COLOUR('',#616);
#604=FILL_AREA_STYLE_COLOUR('',#617);
#605=FILL_AREA_STYLE_COLOUR('',#618);
#606=FILL_AREA_STYLE_COLOUR('',#619);
#607=FILL_AREA_STYLE_COLOUR('',#620);
#608=FILL_AREA_STYLE_COLOUR('',#621);
#609=FILL_AREA_STYLE_COLOUR('',#622);
#610=FILL_AREA_STYLE_COLOUR('',#623);
#611=COLOUR_RGB('',0.800000011920929,0.800000011920929,0.800000011920929);
#612=COLOUR_RGB('',0.498039215803146,0.498039215803146,0.498039215803146);
#613=COLOUR_RGB('',0.498039215803146,0.498039215803146,0.498039215803146);
#614=COLOUR_RGB('',0.498039215803146,0.498039215803146,0.498039215803146);
#615=COLOUR_RGB('',0.498039215803146,0.498039215803146,0.498039215803146);
#616=COLOUR_RGB('',0.498039215803146,0.498039215803146,0.498039215803146);
#617=COLOUR_RGB('',0.498039215803146,0.498039215803146,0.498039215803146);
#618=COLOUR_RGB('',0.800000011920929,0.800000011920929,0.800000011920929);
#619=COLOUR_RGB('',0.800000011920929,0.800000011920929,0.800000011920929);
#620=COLOUR_RGB('',0.498039215803146,0.498039215803146,0.498039215803146);
#621=COLOUR_RGB('',0.800000011920929,0.800000011920929,0.800000011920929);
#622=COLOUR_RGB('',0.800000011920929,0.800000011920929,0.800000011920929);
#623=COLOUR_RGB('',0.800000011920929,0.800000011920929,0.800000011920929);
#624=AXIS2_PLACEMENT_3D('PCS',#625,#626,#627);
#625=CARTESIAN_POINT('',(0.0,0.0,0.0));
#626=DIRECTION('',(0.0,0.0,1.0));
#627=DIRECTION('',(1.0,0.0,0.0));
#628=AXIS2_PLACEMENT_3D('MCS',#629,#630,#631);
#629=CARTESIAN_POINT('',(0.0,0.0,-45.0));
#630=DIRECTION('',(0.0,0.0,1.0));
#631=DIRECTION('',(1.0,0.0,0.0));
#632=AXIS2_PLACEMENT_3D('CIP',#633,#634,#635);
#633=CARTESIAN_POINT('',(0.0,0.0,-80.0));
#634=DIRECTION('',(0.0,0.0,1.0));
#635=DIRECTION('',(1.0,0.0,0.0));
#636=CONSTRUCTIVE_GEOMETRY_REPRESENTATION_RELATIONSHIP('coordinate systems',$,#66,#637);
#637=CONSTRUCTIVE_GEOMETRY_REPRESENTATION('coordinate systems',(#624,#628,#632),#10);
ENDSEC;
END-ISO-10303-21;
