ISO-10303-21;
HEADER;
FILE_DESCRIPTION(('no description'),'unknown implementation level');
FILE_NAME('EP01190600.stp','  ',('CIM GmbH Aachen'),('CADClick - KiM GmbH - www.kimweb.de'),'unknown preprocess','ACIS','unknown authorization');
FILE_SCHEMA(('automotive_design'));
ENDSEC;
DATA;
#1=MECHANICAL_DESIGN_GEOMETRIC_PRESENTATION_REPRESENTATION(' ',(#14,#15,#16,#17,#18,#19,#20,#21,#22,#23,#24,#25,#26,#27,#28,#29,#30,#31,#32,#33,#34,#35,#36,#37,#38,#39,#40,#41,#42,#43,#44,#45,#46,#47,#48,#49,#50,#51,#52,#53,#54,#55,#56,#57,#58,#59,#60,#61),#10);
#2=PRODUCT_DEFINITION_CONTEXT('',#62,'design');
#3=APPLICATION_PROTOCOL_DEFINITION('INTERNATIONAL STANDARD','automotive_design',1994,#62);
#4=PRODUCT_CATEGORY_RELATIONSHIP('NONE','NONE',#63,#64);
#5=SHAPE_DEFINITION_REPRESENTATION(#65,#66);
#6=PRODUCT_DEFINITION_CONTEXT('',#67,'design');
#7=APPLICATION_PROTOCOL_DEFINITION('INTERNATIONAL STANDARD','automotive_design',1994,#67);
#8=PRODUCT_CATEGORY_RELATIONSHIP('NONE','NONE',#68,#69);
#9=SHAPE_DEFINITION_REPRESENTATION(#70,#71);
#10= (GEOMETRIC_REPRESENTATION_CONTEXT(3)GLOBAL_UNCERTAINTY_ASSIGNED_CONTEXT((#74))GLOBAL_UNIT_ASSIGNED_CONTEXT((#76,#77,#78))REPRESENTATION_CONTEXT('NONE','WORKSPACE'));
#14=STYLED_ITEM('',(#80),#81);
#15=STYLED_ITEM('',(#82),#83);
#16=STYLED_ITEM('',(#84),#85);
#17=STYLED_ITEM('',(#86),#87);
#18=STYLED_ITEM('',(#88),#89);
#19=STYLED_ITEM('',(#90),#91);
#20=STYLED_ITEM('',(#92),#93);
#21=STYLED_ITEM('',(#94),#95);
#22=STYLED_ITEM('',(#96),#97);
#23=STYLED_ITEM('',(#98),#99);
#24=STYLED_ITEM('',(#100),#101);
#25=STYLED_ITEM('',(#102),#103);
#26=STYLED_ITEM('',(#104),#105);
#27=STYLED_ITEM('',(#106),#107);
#28=STYLED_ITEM('',(#108),#109);
#29=STYLED_ITEM('',(#110),#111);
#30=STYLED_ITEM('',(#112),#113);
#31=STYLED_ITEM('',(#114),#115);
#32=STYLED_ITEM('',(#116),#117);
#33=STYLED_ITEM('',(#118),#119);
#34=STYLED_ITEM('',(#120),#121);
#35=STYLED_ITEM('',(#122),#123);
#36=STYLED_ITEM('',(#124),#125);
#37=STYLED_ITEM('',(#126),#127);
#38=STYLED_ITEM('',(#128),#129);
#39=STYLED_ITEM('',(#130),#131);
#40=STYLED_ITEM('',(#132),#133);
#41=STYLED_ITEM('',(#134),#135);
#42=STYLED_ITEM('',(#136),#137);
#43=STYLED_ITEM('',(#138),#139);
#44=STYLED_ITEM('',(#140),#141);
#45=STYLED_ITEM('',(#142),#143);
#46=STYLED_ITEM('',(#144),#145);
#47=STYLED_ITEM('',(#146),#147);
#48=STYLED_ITEM('',(#148),#149);
#49=STYLED_ITEM('',(#150),#151);
#50=STYLED_ITEM('',(#152),#153);
#51=STYLED_ITEM('',(#154),#155);
#52=STYLED_ITEM('',(#156),#157);
#53=STYLED_ITEM('',(#158),#159);
#54=STYLED_ITEM('',(#160),#161);
#55=STYLED_ITEM('',(#162),#163);
#56=STYLED_ITEM('',(#164),#165);
#57=STYLED_ITEM('',(#166),#167);
#58=STYLED_ITEM('',(#168),#169);
#59=STYLED_ITEM('',(#170),#171);
#60=STYLED_ITEM('',(#172),#173);
#61=STYLED_ITEM('',(#174),#175);
#62=APPLICATION_CONTEXT(' ');
#63=PRODUCT_CATEGORY('part','NONE');
#64=PRODUCT_RELATED_PRODUCT_CATEGORY('detail',' ',(#176));
#65=PRODUCT_DEFINITION_SHAPE('NONE','NONE',#177);
#66=ADVANCED_BREP_SHAPE_REPRESENTATION('1',(#87,#178),#10);
#67=APPLICATION_CONTEXT(' ');
#68=PRODUCT_CATEGORY('part','NONE');
#69=PRODUCT_RELATED_PRODUCT_CATEGORY('detail',' ',(#179));
#70=PRODUCT_DEFINITION_SHAPE('NONE','NONE',#180);
#71=ADVANCED_BREP_SHAPE_REPRESENTATION('2',(#107,#181),#10);
#74=UNCERTAINTY_MEASURE_WITH_UNIT(LENGTH_MEASURE(1.0E-006),#76,'','');
#76= (CONVERSION_BASED_UNIT('MILLIMETRE',#184)LENGTH_UNIT()NAMED_UNIT(#187));
#77= (NAMED_UNIT(#189)PLANE_ANGLE_UNIT()SI_UNIT($,.RADIAN.));
#78= (NAMED_UNIT(#189)SOLID_ANGLE_UNIT()SI_UNIT($,.STERADIAN.));
#80=PRESENTATION_STYLE_ASSIGNMENT((#195));
#81=EDGE_CURVE('',#153,#151,#196,.T.);
#82=PRESENTATION_STYLE_ASSIGNMENT((#197));
#83=EDGE_CURVE('',#157,#127,#198,.T.);
#84=PRESENTATION_STYLE_ASSIGNMENT((#199));
#85=VERTEX_POINT('',#200);
#86=PRESENTATION_STYLE_ASSIGNMENT((#201));
#87=MANIFOLD_SOLID_BREP('1',#202);
#88=PRESENTATION_STYLE_ASSIGNMENT((#203));
#89=EDGE_CURVE('',#145,#123,#204,.T.);
#90=PRESENTATION_STYLE_ASSIGNMENT((#205));
#91=EDGE_CURVE('',#123,#153,#206,.T.);
#92=PRESENTATION_STYLE_ASSIGNMENT((#207));
#93=ADVANCED_FACE('',(#208),#209,.T.);
#94=PRESENTATION_STYLE_ASSIGNMENT((#210));
#95=EDGE_CURVE('',#145,#165,#211,.T.);
#96=PRESENTATION_STYLE_ASSIGNMENT((#212));
#97=ADVANCED_FACE('',(#213),#214,.T.);
#98=PRESENTATION_STYLE_ASSIGNMENT((#215));
#99=ADVANCED_FACE('',(#216),#217,.T.);
#100=PRESENTATION_STYLE_ASSIGNMENT((#218));
#101=EDGE_CURVE('',#133,#127,#219,.T.);
#102=PRESENTATION_STYLE_ASSIGNMENT((#220));
#103=VERTEX_POINT('',#221);
#104=PRESENTATION_STYLE_ASSIGNMENT((#222));
#105=VERTEX_POINT('',#223);
#106=PRESENTATION_STYLE_ASSIGNMENT((#224));
#107=MANIFOLD_SOLID_BREP('2',#225);
#108=PRESENTATION_STYLE_ASSIGNMENT((#226));
#109=EDGE_CURVE('',#151,#147,#227,.T.);
#110=PRESENTATION_STYLE_ASSIGNMENT((#228));
#111=VERTEX_POINT('',#229);
#112=PRESENTATION_STYLE_ASSIGNMENT((#230));
#113=EDGE_CURVE('',#147,#151,#231,.T.);
#114=PRESENTATION_STYLE_ASSIGNMENT((#232));
#115=ADVANCED_FACE('',(#233),#234,.T.);
#116=PRESENTATION_STYLE_ASSIGNMENT((#235));
#117=EDGE_CURVE('',#133,#175,#236,.T.);
#118=PRESENTATION_STYLE_ASSIGNMENT((#237));
#119=ADVANCED_FACE('',(#238),#239,.T.);
#120=PRESENTATION_STYLE_ASSIGNMENT((#240));
#121=ADVANCED_FACE('',(#241),#242,.T.);
#122=PRESENTATION_STYLE_ASSIGNMENT((#243));
#123=VERTEX_POINT('',#244);
#124=PRESENTATION_STYLE_ASSIGNMENT((#245));
#125=ADVANCED_FACE('',(#246),#247,.T.);
#126=PRESENTATION_STYLE_ASSIGNMENT((#248));
#127=VERTEX_POINT('',#249);
#128=PRESENTATION_STYLE_ASSIGNMENT((#250));
#129=EDGE_CURVE('',#127,#157,#251,.T.);
#130=PRESENTATION_STYLE_ASSIGNMENT((#252));
#131=ADVANCED_FACE('',(#253),#254,.T.);
#132=PRESENTATION_STYLE_ASSIGNMENT((#255));
#133=VERTEX_POINT('',#256);
#134=PRESENTATION_STYLE_ASSIGNMENT((#257));
#135=EDGE_CURVE('',#105,#133,#258,.T.);
#136=PRESENTATION_STYLE_ASSIGNMENT((#259));
#137=ADVANCED_FACE('',(#260),#261,.T.);
#138=PRESENTATION_STYLE_ASSIGNMENT((#262));
#139=EDGE_CURVE('',#157,#111,#263,.T.);
#140=PRESENTATION_STYLE_ASSIGNMENT((#264));
#141=EDGE_CURVE('',#147,#85,#265,.T.);
#142=PRESENTATION_STYLE_ASSIGNMENT((#266));
#143=EDGE_CURVE('',#103,#85,#267,.T.);
#144=PRESENTATION_STYLE_ASSIGNMENT((#268));
#145=VERTEX_POINT('',#269);
#146=PRESENTATION_STYLE_ASSIGNMENT((#270));
#147=VERTEX_POINT('',#271);
#148=PRESENTATION_STYLE_ASSIGNMENT((#272));
#149=ADVANCED_FACE('',(#273),#274,.T.);
#150=PRESENTATION_STYLE_ASSIGNMENT((#275));
#151=VERTEX_POINT('',#276);
#152=PRESENTATION_STYLE_ASSIGNMENT((#277));
#153=VERTEX_POINT('',#278);
#154=PRESENTATION_STYLE_ASSIGNMENT((#279));
#155=EDGE_CURVE('',#153,#103,#280,.T.);
#156=PRESENTATION_STYLE_ASSIGNMENT((#281));
#157=VERTEX_POINT('',#282);
#158=PRESENTATION_STYLE_ASSIGNMENT((#283));
#159=EDGE_CURVE('',#103,#165,#284,.T.);
#160=PRESENTATION_STYLE_ASSIGNMENT((#285));
#161=EDGE_CURVE('',#105,#175,#286,.T.);
#162=PRESENTATION_STYLE_ASSIGNMENT((#287));
#163=EDGE_CURVE('',#175,#111,#288,.T.);
#164=PRESENTATION_STYLE_ASSIGNMENT((#289));
#165=VERTEX_POINT('',#290);
#166=PRESENTATION_STYLE_ASSIGNMENT((#291));
#167=EDGE_CURVE('',#165,#145,#292,.T.);
#168=PRESENTATION_STYLE_ASSIGNMENT((#293));
#169=ADVANCED_FACE('',(#294),#295,.T.);
#170=PRESENTATION_STYLE_ASSIGNMENT((#296));
#171=EDGE_CURVE('',#111,#105,#297,.T.);
#172=PRESENTATION_STYLE_ASSIGNMENT((#298));
#173=EDGE_CURVE('',#85,#123,#299,.T.);
#174=PRESENTATION_STYLE_ASSIGNMENT((#300));
#175=VERTEX_POINT('',#301);
#176=PRODUCT('1','1','PART-1-DESC',(#302));
#177=PRODUCT_DEFINITION('NONE','NONE',#303,#2);
#178=AXIS2_PLACEMENT_3D('',#304,#305,#306);
#179=PRODUCT('2','2','PART-2-DESC',(#307));
#180=PRODUCT_DEFINITION('NONE','NONE',#308,#6);
#181=AXIS2_PLACEMENT_3D('',#309,#310,#311);
#184=LENGTH_MEASURE_WITH_UNIT(LENGTH_MEASURE(1.0),#312);
#187=DIMENSIONAL_EXPONENTS(1.0,0.0,0.0,0.0,0.0,0.0,0.0);
#189=DIMENSIONAL_EXPONENTS(0.0,0.0,0.0,0.0,0.0,0.0,0.0);
#195=CURVE_STYLE('',#313,POSITIVE_LENGTH_MEASURE(1.0E-006),#314);
#196=LINE('',#315,#316);
#197=CURVE_STYLE('',#317,POSITIVE_LENGTH_MEASURE(1.0E-006),#318);
#198=CIRCLE('',#319,3.0);
#199=POINT_STYLE(' ',#320,POSITIVE_LENGTH_MEASURE(1.0E-006),#321);
#200=CARTESIAN_POINT('',(0.0,3.0,-0.399999999999999));
#201=SURFACE_STYLE_USAGE(.BOTH.,#322);
#202=CLOSED_SHELL('',(#115,#131,#137,#93,#149,#119));
#203=CURVE_STYLE('',#323,POSITIVE_LENGTH_MEASURE(1.0E-006),#324);
#204=LINE('',#325,#326);
#205=CURVE_STYLE('',#327,POSITIVE_LENGTH_MEASURE(1.0E-006),#328);
#206=CIRCLE('',#329,3.0);
#207=SURFACE_STYLE_USAGE(.BOTH.,#330);
#208=FACE_OUTER_BOUND('',#331,.T.);
#209=CONICAL_SURFACE('',#332,2.8,0.78539816339745);
#210=CURVE_STYLE('',#333,POSITIVE_LENGTH_MEASURE(1.0E-006),#334);
#211=CIRCLE('',#335,3.0);
#212=SURFACE_STYLE_USAGE(.BOTH.,#336);
#213=FACE_OUTER_BOUND('',#337,.T.);
#214=SPHERICAL_SURFACE('',#338,3.0);
#215=SURFACE_STYLE_USAGE(.BOTH.,#339);
#216=FACE_OUTER_BOUND('',#340,.T.);
#217=CYLINDRICAL_SURFACE('',#341,3.0);
#218=CURVE_STYLE('',#342,POSITIVE_LENGTH_MEASURE(1.0E-006),#343);
#219=LINE('',#344,#345);
#220=POINT_STYLE(' ',#346,POSITIVE_LENGTH_MEASURE(1.0E-006),#347);
#221=CARTESIAN_POINT('',(-3.0,-3.67381906146713E-016,-0.399999999999999));
#222=POINT_STYLE(' ',#348,POSITIVE_LENGTH_MEASURE(1.0E-006),#349);
#223=CARTESIAN_POINT('',(-8.70135148874154E-031,-3.0,-52.0));
#224=SURFACE_STYLE_USAGE(.BOTH.,#350);
#225=CLOSED_SHELL('',(#169,#97,#125,#121,#99));
#226=CURVE_STYLE('',#351,POSITIVE_LENGTH_MEASURE(1.0E-006),#352);
#227=CIRCLE('',#353,2.6);
#228=POINT_STYLE(' ',#354,POSITIVE_LENGTH_MEASURE(1.0E-006),#355);
#229=CARTESIAN_POINT('',(1.5,2.59807621135332,-52.0));
#230=CURVE_STYLE('',#356,POSITIVE_LENGTH_MEASURE(1.0E-006),#357);
#231=CIRCLE('',#358,2.6);
#232=SURFACE_STYLE_USAGE(.BOTH.,#359);
#233=FACE_OUTER_BOUND('',#360,.T.);
#234=CYLINDRICAL_SURFACE('',#361,3.0);
#235=CURVE_STYLE('',#362,POSITIVE_LENGTH_MEASURE(1.0E-006),#363);
#236=CIRCLE('',#364,3.0);
#237=SURFACE_STYLE_USAGE(.BOTH.,#365);
#238=FACE_OUTER_BOUND('',#366,.T.);
#239=PLANE('',#367);
#240=SURFACE_STYLE_USAGE(.BOTH.,#368);
#241=FACE_OUTER_BOUND('',#369,.T.);
#242=PLANE('',#370);
#243=POINT_STYLE(' ',#371,POSITIVE_LENGTH_MEASURE(1.0E-006),#372);
#244=CARTESIAN_POINT('',(3.0,3.67381906146713E-016,-0.399999999999999));
#245=SURFACE_STYLE_USAGE(.BOTH.,#373);
#246=FACE_OUTER_BOUND('',#374,.T.);
#247=SPHERICAL_SURFACE('',#375,3.0);
#248=POINT_STYLE(' ',#376,POSITIVE_LENGTH_MEASURE(1.0E-006),#377);
#249=CARTESIAN_POINT('',(-1.5,-2.59807621135332,-48.0));
#250=CURVE_STYLE('',#378,POSITIVE_LENGTH_MEASURE(1.0E-006),#379);
#251=CIRCLE('',#380,3.0);
#252=SURFACE_STYLE_USAGE(.BOTH.,#381);
#253=FACE_OUTER_BOUND('',#382,.T.);
#254=CONICAL_SURFACE('',#383,2.8,0.78539816339745);
#255=POINT_STYLE(' ',#384,POSITIVE_LENGTH_MEASURE(1.0E-006),#385);
#256=CARTESIAN_POINT('',(-1.5,-2.59807621135332,-52.0));
#257=CURVE_STYLE('',#386,POSITIVE_LENGTH_MEASURE(1.0E-006),#387);
#258=CIRCLE('',#388,3.0);
#259=SURFACE_STYLE_USAGE(.BOTH.,#389);
#260=FACE_OUTER_BOUND('',#390,.T.);
#261=PLANE('',#391);
#262=CURVE_STYLE('',#392,POSITIVE_LENGTH_MEASURE(1.0E-006),#393);
#263=LINE('',#394,#395);
#264=CURVE_STYLE('',#396,POSITIVE_LENGTH_MEASURE(1.0E-006),#397);
#265=LINE('',#398,#399);
#266=CURVE_STYLE('',#400,POSITIVE_LENGTH_MEASURE(1.0E-006),#401);
#267=CIRCLE('',#402,3.0);
#268=POINT_STYLE(' ',#403,POSITIVE_LENGTH_MEASURE(1.0E-006),#404);
#269=CARTESIAN_POINT('',(3.0,3.67381906146713E-016,-48.0));
#270=POINT_STYLE(' ',#405,POSITIVE_LENGTH_MEASURE(1.0E-006),#406);
#271=CARTESIAN_POINT('',(0.0,2.6,0.0));
#272=SURFACE_STYLE_USAGE(.BOTH.,#407);
#273=FACE_OUTER_BOUND('',#408,.T.);
#274=CYLINDRICAL_SURFACE('',#409,3.0);
#275=POINT_STYLE(' ',#410,POSITIVE_LENGTH_MEASURE(1.0E-006),#411);
#276=CARTESIAN_POINT('',(3.18397651993818E-016,-2.6,0.0));
#277=POINT_STYLE(' ',#412,POSITIVE_LENGTH_MEASURE(1.0E-006),#413);
#278=CARTESIAN_POINT('',(3.67381906146713E-016,-3.0,-0.399999999999999));
#279=CURVE_STYLE('',#414,POSITIVE_LENGTH_MEASURE(1.0E-006),#415);
#280=CIRCLE('',#416,3.0);
#281=POINT_STYLE(' ',#417,POSITIVE_LENGTH_MEASURE(1.0E-006),#418);
#282=CARTESIAN_POINT('',(1.5,2.59807621135332,-48.0));
#283=CURVE_STYLE('',#419,POSITIVE_LENGTH_MEASURE(1.0E-006),#420);
#284=LINE('',#421,#422);
#285=CURVE_STYLE('',#423,POSITIVE_LENGTH_MEASURE(1.0E-006),#424);
#286=CIRCLE('',#425,3.0);
#287=CURVE_STYLE('',#426,POSITIVE_LENGTH_MEASURE(1.0E-006),#427);
#288=CIRCLE('',#428,3.0);
#289=POINT_STYLE(' ',#429,POSITIVE_LENGTH_MEASURE(1.0E-006),#430);
#290=CARTESIAN_POINT('',(-3.0,0.0,-48.0));
#291=CURVE_STYLE('',#431,POSITIVE_LENGTH_MEASURE(1.0E-006),#432);
#292=CIRCLE('',#433,3.0);
#293=SURFACE_STYLE_USAGE(.BOTH.,#434);
#294=FACE_OUTER_BOUND('',#435,.T.);
#295=CYLINDRICAL_SURFACE('',#436,3.0);
#296=CURVE_STYLE('',#437,POSITIVE_LENGTH_MEASURE(1.0E-006),#438);
#297=CIRCLE('',#439,3.0);
#298=CURVE_STYLE('',#440,POSITIVE_LENGTH_MEASURE(1.0E-006),#441);
#299=CIRCLE('',#442,3.0);
#300=POINT_STYLE(' ',#443,POSITIVE_LENGTH_MEASURE(1.0E-006),#444);
#301=CARTESIAN_POINT('',(-8.70135148874154E-031,3.0,-52.0));
#302=PRODUCT_CONTEXT('',#62,'mechanical');
#303=PRODUCT_DEFINITION_FORMATION_WITH_SPECIFIED_SOURCE(' ','NONE',#176,.NOT_KNOWN.);
#304=CARTESIAN_POINT('',(0.0,0.0,0.0));
#305=DIRECTION('',(0.0,0.0,1.0));
#306=DIRECTION('',(1.0,0.0,0.0));
#307=PRODUCT_CONTEXT('',#67,'mechanical');
#308=PRODUCT_DEFINITION_FORMATION_WITH_SPECIFIED_SOURCE(' ','NONE',#179,.NOT_KNOWN.);
#309=CARTESIAN_POINT('',(0.0,0.0,0.0));
#310=DIRECTION('',(0.0,0.0,1.0));
#311=DIRECTION('',(1.0,0.0,0.0));
#312= (NAMED_UNIT(#187)LENGTH_UNIT()SI_UNIT(.MILLI.,.METRE.));
#313=DRAUGHTING_PRE_DEFINED_CURVE_FONT('continuous');
#314=COLOUR_RGB('',0.498039215803146,0.498039215803146,0.498039215803146);
#315=CARTESIAN_POINT('',(3.42889779070266E-016,-2.8,-0.199999999999996));
#316=VECTOR('',#446,1.0);
#317=DRAUGHTING_PRE_DEFINED_CURVE_FONT('continuous');
#318=COLOUR_RGB('',0.800000011920929,0.800000011920929,0.800000011920929);
#319=AXIS2_PLACEMENT_3D('',#447,#448,#449);
#320=PRE_DEFINED_MARKER('');
#321=COLOUR_RGB('',0.498039215803146,0.498039215803146,0.498039215803146);
#322=SURFACE_SIDE_STYLE('',(#450));
#323=DRAUGHTING_PRE_DEFINED_CURVE_FONT('continuous');
#324=COLOUR_RGB('',0.498039215803146,0.498039215803146,0.498039215803146);
#325=CARTESIAN_POINT('',(3.0,3.67381906146713E-016,-42.5));
#326=VECTOR('',#451,1.0);
#327=DRAUGHTING_PRE_DEFINED_CURVE_FONT('continuous');
#328=COLOUR_RGB('',0.498039215803146,0.498039215803146,0.498039215803146);
#329=AXIS2_PLACEMENT_3D('',#452,#453,#454);
#330=SURFACE_SIDE_STYLE('',(#455));
#331=EDGE_LOOP('',(#456,#457,#458,#459,#460));
#332=AXIS2_PLACEMENT_3D('',#461,#462,#463);
#333=DRAUGHTING_PRE_DEFINED_CURVE_FONT('continuous');
#334=COLOUR_RGB('',0.498039215803146,0.498039215803146,0.498039215803146);
#335=AXIS2_PLACEMENT_3D('',#464,#465,#466);
#336=SURFACE_SIDE_STYLE('',(#467));
#337=EDGE_LOOP('',(#468,#469,#470));
#338=AXIS2_PLACEMENT_3D('',#471,#472,#473);
#339=SURFACE_SIDE_STYLE('',(#474));
#340=EDGE_LOOP('',(#475,#476,#477,#478,#479));
#341=AXIS2_PLACEMENT_3D('',#480,#481,#482);
#342=DRAUGHTING_PRE_DEFINED_CURVE_FONT('continuous');
#343=COLOUR_RGB('',0.800000011920929,0.800000011920929,0.800000011920929);
#344=CARTESIAN_POINT('',(-1.5,-2.59807621135332,-50.0));
#345=VECTOR('',#483,1.0);
#346=PRE_DEFINED_MARKER('');
#347=COLOUR_RGB('',0.498039215803146,0.498039215803146,0.498039215803146);
#348=PRE_DEFINED_MARKER('');
#349=COLOUR_RGB('',0.800000011920929,0.800000011920929,0.800000011920929);
#350=SURFACE_SIDE_STYLE('',(#484));
#351=DRAUGHTING_PRE_DEFINED_CURVE_FONT('continuous');
#352=COLOUR_RGB('',0.498039215803146,0.498039215803146,0.498039215803146);
#353=AXIS2_PLACEMENT_3D('',#485,#486,#487);
#354=PRE_DEFINED_MARKER('');
#355=COLOUR_RGB('',0.800000011920929,0.800000011920929,0.800000011920929);
#356=DRAUGHTING_PRE_DEFINED_CURVE_FONT('continuous');
#357=COLOUR_RGB('',0.498039215803146,0.498039215803146,0.498039215803146);
#358=AXIS2_PLACEMENT_3D('',#488,#489,#490);
#359=SURFACE_SIDE_STYLE('',(#491));
#360=EDGE_LOOP('',(#492,#493,#494,#495,#496));
#361=AXIS2_PLACEMENT_3D('',#497,#498,#499);
#362=DRAUGHTING_PRE_DEFINED_CURVE_FONT('continuous');
#363=COLOUR_RGB('',0.800000011920929,0.800000011920929,0.800000011920929);
#364=AXIS2_PLACEMENT_3D('',#500,#501,#502);
#365=SURFACE_SIDE_STYLE('',(#503));
#366=EDGE_LOOP('',(#504,#505));
#367=AXIS2_PLACEMENT_3D('',#506,#507,#508);
#368=SURFACE_SIDE_STYLE('',(#509));
#369=EDGE_LOOP('',(#510,#511));
#370=AXIS2_PLACEMENT_3D('',#512,#513,#514);
#371=PRE_DEFINED_MARKER('');
#372=COLOUR_RGB('',0.498039215803146,0.498039215803146,0.498039215803146);
#373=SURFACE_SIDE_STYLE('',(#515));
#374=EDGE_LOOP('',(#516,#517,#518));
#375=AXIS2_PLACEMENT_3D('',#519,#520,#521);
#376=PRE_DEFINED_MARKER('');
#377=COLOUR_RGB('',0.800000011920929,0.800000011920929,0.800000011920929);
#378=DRAUGHTING_PRE_DEFINED_CURVE_FONT('continuous');
#379=COLOUR_RGB('',0.800000011920929,0.800000011920929,0.800000011920929);
#380=AXIS2_PLACEMENT_3D('',#522,#523,#524);
#381=SURFACE_SIDE_STYLE('',(#525));
#382=EDGE_LOOP('',(#526,#527,#528,#529,#530));
#383=AXIS2_PLACEMENT_3D('',#531,#532,#533);
#384=PRE_DEFINED_MARKER('');
#385=COLOUR_RGB('',0.800000011920929,0.800000011920929,0.800000011920929);
#386=DRAUGHTING_PRE_DEFINED_CURVE_FONT('continuous');
#387=COLOUR_RGB('',0.800000011920929,0.800000011920929,0.800000011920929);
#388=AXIS2_PLACEMENT_3D('',#534,#535,#536);
#389=SURFACE_SIDE_STYLE('',(#537));
#390=EDGE_LOOP('',(#538,#539));
#391=AXIS2_PLACEMENT_3D('',#540,#541,#542);
#392=DRAUGHTING_PRE_DEFINED_CURVE_FONT('continuous');
#393=COLOUR_RGB('',0.800000011920929,0.800000011920929,0.800000011920929);
#394=CARTESIAN_POINT('',(1.5,2.59807621135332,-50.0));
#395=VECTOR('',#543,1.0);
#396=DRAUGHTING_PRE_DEFINED_CURVE_FONT('continuous');
#397=COLOUR_RGB('',0.498039215803146,0.498039215803146,0.498039215803146);
#398=CARTESIAN_POINT('',(-3.42889779070266E-016,2.8,-0.199999999999996));
#399=VECTOR('',#544,1.0);
#400=DRAUGHTING_PRE_DEFINED_CURVE_FONT('continuous');
#401=COLOUR_RGB('',0.498039215803146,0.498039215803146,0.498039215803146);
#402=AXIS2_PLACEMENT_3D('',#545,#546,#547);
#403=PRE_DEFINED_MARKER('');
#404=COLOUR_RGB('',0.498039215803146,0.498039215803146,0.498039215803146);
#405=PRE_DEFINED_MARKER('');
#406=COLOUR_RGB('',0.498039215803146,0.498039215803146,0.498039215803146);
#407=SURFACE_SIDE_STYLE('',(#548));
#408=EDGE_LOOP('',(#549,#550,#551,#552,#553));
#409=AXIS2_PLACEMENT_3D('',#554,#555,#556);
#410=PRE_DEFINED_MARKER('');
#411=COLOUR_RGB('',0.498039215803146,0.498039215803146,0.498039215803146);
#412=PRE_DEFINED_MARKER('');
#413=COLOUR_RGB('',0.498039215803146,0.498039215803146,0.498039215803146);
#414=DRAUGHTING_PRE_DEFINED_CURVE_FONT('continuous');
#415=COLOUR_RGB('',0.498039215803146,0.498039215803146,0.498039215803146);
#416=AXIS2_PLACEMENT_3D('',#557,#558,#559);
#417=PRE_DEFINED_MARKER('');
#418=COLOUR_RGB('',0.800000011920929,0.800000011920929,0.800000011920929);
#419=DRAUGHTING_PRE_DEFINED_CURVE_FONT('continuous');
#420=COLOUR_RGB('',0.498039215803146,0.498039215803146,0.498039215803146);
#421=CARTESIAN_POINT('',(-3.0,-3.67381906146713E-016,-42.5));
#422=VECTOR('',#560,1.0);
#423=DRAUGHTING_PRE_DEFINED_CURVE_FONT('continuous');
#424=COLOUR_RGB('',0.800000011920929,0.800000011920929,0.800000011920929);
#425=AXIS2_PLACEMENT_3D('',#561,#562,#563);
#426=DRAUGHTING_PRE_DEFINED_CURVE_FONT('continuous');
#427=COLOUR_RGB('',0.800000011920929,0.800000011920929,0.800000011920929);
#428=AXIS2_PLACEMENT_3D('',#564,#565,#566);
#429=PRE_DEFINED_MARKER('');
#430=COLOUR_RGB('',0.498039215803146,0.498039215803146,0.498039215803146);
#431=DRAUGHTING_PRE_DEFINED_CURVE_FONT('continuous');
#432=COLOUR_RGB('',0.498039215803146,0.498039215803146,0.498039215803146);
#433=AXIS2_PLACEMENT_3D('',#567,#568,#569);
#434=SURFACE_SIDE_STYLE('',(#570));
#435=EDGE_LOOP('',(#571,#572,#573,#574,#575));
#436=AXIS2_PLACEMENT_3D('',#576,#577,#578);
#437=DRAUGHTING_PRE_DEFINED_CURVE_FONT('continuous');
#438=COLOUR_RGB('',0.800000011920929,0.800000011920929,0.800000011920929);
#439=AXIS2_PLACEMENT_3D('',#579,#580,#581);
#440=DRAUGHTING_PRE_DEFINED_CURVE_FONT('continuous');
#441=COLOUR_RGB('',0.498039215803146,0.498039215803146,0.498039215803146);
#442=AXIS2_PLACEMENT_3D('',#582,#583,#584);
#443=PRE_DEFINED_MARKER('');
#444=COLOUR_RGB('',0.800000011920929,0.800000011920929,0.800000011920929);
#446=DIRECTION('',(-8.65927457071937E-017,0.707106781186549,0.707106781186546));
#447=CARTESIAN_POINT('',(0.0,0.0,-48.0));
#448=DIRECTION('',(0.0,0.0,-1.0));
#449=DIRECTION('',(0.5,0.866025403784439,0.0));
#450=SURFACE_STYLE_FILL_AREA(#585);
#451=DIRECTION('',(-0.0,-0.0,1.0));
#452=CARTESIAN_POINT('',(0.0,0.0,-0.399999999999999));
#453=DIRECTION('',(0.0,0.0,-1.0));
#454=DIRECTION('',(0.0,1.0,0.0));
#455=SURFACE_STYLE_FILL_AREA(#586);
#456=ORIENTED_EDGE('',*,*,#141,.T.);
#457=ORIENTED_EDGE('',*,*,#143,.F.);
#458=ORIENTED_EDGE('',*,*,#155,.F.);
#459=ORIENTED_EDGE('',*,*,#81,.T.);
#460=ORIENTED_EDGE('',*,*,#109,.T.);
#461=CARTESIAN_POINT('',(0.0,0.0,-0.199999999999996));
#462=DIRECTION('',(0.0,-0.0,-1.0));
#463=DIRECTION('',(0.0,1.0,0.0));
#464=CARTESIAN_POINT('',(0.0,0.0,-48.0));
#465=DIRECTION('',(0.0,0.0,-1.0));
#466=DIRECTION('',(-1.0,0.0,0.0));
#467=SURFACE_STYLE_FILL_AREA(#587);
#468=ORIENTED_EDGE('',*,*,#161,.F.);
#469=ORIENTED_EDGE('',*,*,#135,.T.);
#470=ORIENTED_EDGE('',*,*,#117,.T.);
#471=CARTESIAN_POINT('',(0.0,0.0,-52.0));
#472=DIRECTION('',(0.0,1.0,0.0));
#473=DIRECTION('',(0.0,0.0,-1.0));
#474=SURFACE_STYLE_FILL_AREA(#588);
#475=ORIENTED_EDGE('',*,*,#139,.T.);
#476=ORIENTED_EDGE('',*,*,#163,.F.);
#477=ORIENTED_EDGE('',*,*,#117,.F.);
#478=ORIENTED_EDGE('',*,*,#101,.T.);
#479=ORIENTED_EDGE('',*,*,#129,.T.);
#480=CARTESIAN_POINT('',(0.0,0.0,-50.0));
#481=DIRECTION('',(-0.0,-0.0,1.0));
#482=DIRECTION('',(0.5,0.866025403784439,0.0));
#483=DIRECTION('',(-0.0,-0.0,1.0));
#484=SURFACE_STYLE_FILL_AREA(#589);
#485=CARTESIAN_POINT('',(0.0,0.0,0.0));
#486=DIRECTION('',(0.0,0.0,-1.0));
#487=DIRECTION('',(0.0,1.0,0.0));
#488=CARTESIAN_POINT('',(0.0,0.0,0.0));
#489=DIRECTION('',(0.0,0.0,-1.0));
#490=DIRECTION('',(0.0,1.0,0.0));
#491=SURFACE_STYLE_FILL_AREA(#590);
#492=ORIENTED_EDGE('',*,*,#159,.F.);
#493=ORIENTED_EDGE('',*,*,#143,.T.);
#494=ORIENTED_EDGE('',*,*,#173,.T.);
#495=ORIENTED_EDGE('',*,*,#89,.F.);
#496=ORIENTED_EDGE('',*,*,#167,.F.);
#497=CARTESIAN_POINT('',(0.0,0.0,-42.5));
#498=DIRECTION('',(-0.0,-0.0,1.0));
#499=DIRECTION('',(-1.0,0.0,0.0));
#500=CARTESIAN_POINT('',(0.0,0.0,-52.0));
#501=DIRECTION('',(0.0,0.0,-1.0));
#502=DIRECTION('',(0.5,0.866025403784439,0.0));
#503=SURFACE_STYLE_FILL_AREA(#591);
#504=ORIENTED_EDGE('',*,*,#167,.T.);
#505=ORIENTED_EDGE('',*,*,#95,.T.);
#506=CARTESIAN_POINT('',(-1.5,0.0,-48.0));
#507=DIRECTION('',(0.0,0.0,-1.0));
#508=DIRECTION('',(-1.0,0.0,0.0));
#509=SURFACE_STYLE_FILL_AREA(#592);
#510=ORIENTED_EDGE('',*,*,#83,.F.);
#511=ORIENTED_EDGE('',*,*,#129,.F.);
#512=CARTESIAN_POINT('',(0.75,1.29903810567666,-48.0));
#513=DIRECTION('',(0.0,0.0,1.0));
#514=DIRECTION('',(-0.5,-0.866025403784439,0.0));
#515=SURFACE_STYLE_FILL_AREA(#593);
#516=ORIENTED_EDGE('',*,*,#161,.T.);
#517=ORIENTED_EDGE('',*,*,#163,.T.);
#518=ORIENTED_EDGE('',*,*,#171,.T.);
#519=CARTESIAN_POINT('',(0.0,0.0,-52.0));
#520=DIRECTION('',(0.0,1.0,0.0));
#521=DIRECTION('',(0.0,0.0,-1.0));
#522=CARTESIAN_POINT('',(0.0,0.0,-48.0));
#523=DIRECTION('',(0.0,0.0,-1.0));
#524=DIRECTION('',(0.5,0.866025403784439,0.0));
#525=SURFACE_STYLE_FILL_AREA(#594);
#526=ORIENTED_EDGE('',*,*,#141,.F.);
#527=ORIENTED_EDGE('',*,*,#113,.T.);
#528=ORIENTED_EDGE('',*,*,#81,.F.);
#529=ORIENTED_EDGE('',*,*,#91,.F.);
#530=ORIENTED_EDGE('',*,*,#173,.F.);
#531=CARTESIAN_POINT('',(0.0,0.0,-0.199999999999996));
#532=DIRECTION('',(0.0,-0.0,-1.0));
#533=DIRECTION('',(0.0,1.0,0.0));
#534=CARTESIAN_POINT('',(0.0,0.0,-52.0));
#535=DIRECTION('',(0.0,0.0,-1.0));
#536=DIRECTION('',(0.5,0.866025403784439,0.0));
#537=SURFACE_STYLE_FILL_AREA(#595);
#538=ORIENTED_EDGE('',*,*,#113,.F.);
#539=ORIENTED_EDGE('',*,*,#109,.F.);
#540=CARTESIAN_POINT('',(0.0,1.3,0.0));
#541=DIRECTION('',(-0.0,0.0,1.0));
#542=DIRECTION('',(0.0,-1.0,0.0));
#543=DIRECTION('',(0.0,0.0,-1.0));
#544=DIRECTION('',(-8.65927457071937E-017,0.707106781186549,-0.707106781186546));
#545=CARTESIAN_POINT('',(0.0,0.0,-0.399999999999999));
#546=DIRECTION('',(0.0,0.0,-1.0));
#547=DIRECTION('',(0.0,1.0,0.0));
#548=SURFACE_STYLE_FILL_AREA(#596);
#549=ORIENTED_EDGE('',*,*,#159,.T.);
#550=ORIENTED_EDGE('',*,*,#95,.F.);
#551=ORIENTED_EDGE('',*,*,#89,.T.);
#552=ORIENTED_EDGE('',*,*,#91,.T.);
#553=ORIENTED_EDGE('',*,*,#155,.T.);
#554=CARTESIAN_POINT('',(0.0,0.0,-42.5));
#555=DIRECTION('',(-0.0,-0.0,1.0));
#556=DIRECTION('',(-1.0,0.0,0.0));
#557=CARTESIAN_POINT('',(0.0,0.0,-0.399999999999999));
#558=DIRECTION('',(0.0,0.0,-1.0));
#559=DIRECTION('',(0.0,1.0,0.0));
#560=DIRECTION('',(0.0,0.0,-1.0));
#561=CARTESIAN_POINT('',(0.0,0.0,-52.0));
#562=DIRECTION('',(1.0,0.0,1.22460635382238E-016));
#563=DIRECTION('',(-1.22460635382238E-016,0.0,1.0));
#564=CARTESIAN_POINT('',(0.0,0.0,-52.0));
#565=DIRECTION('',(0.0,0.0,-1.0));
#566=DIRECTION('',(0.5,0.866025403784439,0.0));
#567=CARTESIAN_POINT('',(0.0,0.0,-48.0));
#568=DIRECTION('',(0.0,0.0,-1.0));
#569=DIRECTION('',(-1.0,0.0,0.0));
#570=SURFACE_STYLE_FILL_AREA(#597);
#571=ORIENTED_EDGE('',*,*,#139,.F.);
#572=ORIENTED_EDGE('',*,*,#83,.T.);
#573=ORIENTED_EDGE('',*,*,#101,.F.);
#574=ORIENTED_EDGE('',*,*,#135,.F.);
#575=ORIENTED_EDGE('',*,*,#171,.F.);
#576=CARTESIAN_POINT('',(0.0,0.0,-50.0));
#577=DIRECTION('',(-0.0,-0.0,1.0));
#578=DIRECTION('',(0.5,0.866025403784439,0.0));
#579=CARTESIAN_POINT('',(0.0,0.0,-52.0));
#580=DIRECTION('',(0.0,0.0,-1.0));
#581=DIRECTION('',(0.5,0.866025403784439,0.0));
#582=CARTESIAN_POINT('',(0.0,0.0,-0.399999999999999));
#583=DIRECTION('',(0.0,0.0,-1.0));
#584=DIRECTION('',(0.0,1.0,0.0));
#585=FILL_AREA_STYLE('',(#598));
#586=FILL_AREA_STYLE('',(#599));
#587=FILL_AREA_STYLE('',(#600));
#588=FILL_AREA_STYLE('',(#601));
#589=FILL_AREA_STYLE('',(#602));
#590=FILL_AREA_STYLE('',(#603));
#591=FILL_AREA_STYLE('',(#604));
#592=FILL_AREA_STYLE('',(#605));
#593=FILL_AREA_STYLE('',(#606));
#594=FILL_AREA_STYLE('',(#607));
#595=FILL_AREA_STYLE('',(#608));
#596=FILL_AREA_STYLE('',(#609));
#597=FILL_AREA_STYLE('',(#610));
#598=FILL_AREA_STYLE_COLOUR('',#611);
#599=FILL_AREA_STYLE_COLOUR('',#612);
#600=FILL_AREA_STYLE_COLOUR('',#613);
#601=FILL_AREA_STYLE_COLOUR('',#614);
#602=FILL_AREA_STYLE_COLOUR('',#615);
#603=FILL_AREA_STYLE_COLOUR('',#616);
#604=FILL_AREA_STYLE_COLOUR('',#617);
#605=FILL_AREA_STYLE_COLOUR('',#618);
#606=FILL_AREA_STYLE_COLOUR('',#619);
#607=FILL_AREA_STYLE_COLOUR('',#620);
#608=FILL_AREA_STYLE_COLOUR('',#621);
#609=FILL_AREA_STYLE_COLOUR('',#622);
#610=FILL_AREA_STYLE_COLOUR('',#623);
#611=COLOUR_RGB('',0.498039215803146,0.498039215803146,0.498039215803146);
#612=COLOUR_RGB('',0.498039215803146,0.498039215803146,0.498039215803146);
#613=COLOUR_RGB('',0.800000011920929,0.800000011920929,0.800000011920929);
#614=COLOUR_RGB('',0.800000011920929,0.800000011920929,0.800000011920929);
#615=COLOUR_RGB('',0.800000011920929,0.800000011920929,0.800000011920929);
#616=COLOUR_RGB('',0.498039215803146,0.498039215803146,0.498039215803146);
#617=COLOUR_RGB('',0.498039215803146,0.498039215803146,0.498039215803146);
#618=COLOUR_RGB('',0.800000011920929,0.800000011920929,0.800000011920929);
#619=COLOUR_RGB('',0.800000011920929,0.800000011920929,0.800000011920929);
#620=COLOUR_RGB('',0.498039215803146,0.498039215803146,0.498039215803146);
#621=COLOUR_RGB('',0.498039215803146,0.498039215803146,0.498039215803146);
#622=COLOUR_RGB('',0.498039215803146,0.498039215803146,0.498039215803146);
#623=COLOUR_RGB('',0.800000011920929,0.800000011920929,0.800000011920929);
#624=AXIS2_PLACEMENT_3D('PCS',#625,#626,#627);
#625=CARTESIAN_POINT('',(0.0,0.0,0.0));
#626=DIRECTION('',(0.0,0.0,1.0));
#627=DIRECTION('',(1.0,0.0,0.0));
#628=AXIS2_PLACEMENT_3D('MCS',#629,#630,#631);
#629=CARTESIAN_POINT('',(0.0,0.0,-36.0));
#630=DIRECTION('',(0.0,0.0,1.0));
#631=DIRECTION('',(1.0,0.0,0.0));
#632=AXIS2_PLACEMENT_3D('CIP',#633,#634,#635);
#633=CARTESIAN_POINT('',(0.0,0.0,-55.0));
#634=DIRECTION('',(0.0,0.0,1.0));
#635=DIRECTION('',(1.0,0.0,0.0));
#636=CONSTRUCTIVE_GEOMETRY_REPRESENTATION_RELATIONSHIP('coordinate systems',$,#66,#637);
#637=CONSTRUCTIVE_GEOMETRY_REPRESENTATION('coordinate systems',(#624,#628,#632),#10);
ENDSEC;
END-ISO-10303-21;
