ISO-10303-21;
HEADER;
FILE_DESCRIPTION(('no description'),'unknown implementation level');
FILE_NAME('EP01190800.stp','  ',('CIM GmbH Aachen'),('CADClick - KiM GmbH - www.kimweb.de'),'unknown preprocess','ACIS','unknown authorization');
FILE_SCHEMA(('automotive_design'));
ENDSEC;
DATA;
#1=MECHANICAL_DESIGN_GEOMETRIC_PRESENTATION_REPRESENTATION(' ',(#14,#15,#16,#17,#18,#19,#20,#21,#22,#23,#24,#25,#26,#27,#28,#29,#30,#31,#32,#33,#34,#35,#36,#37,#38,#39,#40,#41,#42,#43,#44,#45,#46,#47,#48,#49,#50,#51,#52,#53,#54,#55,#56,#57,#58,#59,#60,#61),#10);
#2=PRODUCT_DEFINITION_CONTEXT('',#62,'design');
#3=APPLICATION_PROTOCOL_DEFINITION('INTERNATIONAL STANDARD','automotive_design',1994,#62);
#4=PRODUCT_CATEGORY_RELATIONSHIP('NONE','NONE',#63,#64);
#5=SHAPE_DEFINITION_REPRESENTATION(#65,#66);
#6=PRODUCT_DEFINITION_CONTEXT('',#67,'design');
#7=APPLICATION_PROTOCOL_DEFINITION('INTERNATIONAL STANDARD','automotive_design',1994,#67);
#8=PRODUCT_CATEGORY_RELATIONSHIP('NONE','NONE',#68,#69);
#9=SHAPE_DEFINITION_REPRESENTATION(#70,#71);
#10= (GEOMETRIC_REPRESENTATION_CONTEXT(3)GLOBAL_UNCERTAINTY_ASSIGNED_CONTEXT((#74))GLOBAL_UNIT_ASSIGNED_CONTEXT((#76,#77,#78))REPRESENTATION_CONTEXT('NONE','WORKSPACE'));
#14=STYLED_ITEM('',(#80),#81);
#15=STYLED_ITEM('',(#82),#83);
#16=STYLED_ITEM('',(#84),#85);
#17=STYLED_ITEM('',(#86),#87);
#18=STYLED_ITEM('',(#88),#89);
#19=STYLED_ITEM('',(#90),#91);
#20=STYLED_ITEM('',(#92),#93);
#21=STYLED_ITEM('',(#94),#95);
#22=STYLED_ITEM('',(#96),#97);
#23=STYLED_ITEM('',(#98),#99);
#24=STYLED_ITEM('',(#100),#101);
#25=STYLED_ITEM('',(#102),#103);
#26=STYLED_ITEM('',(#104),#105);
#27=STYLED_ITEM('',(#106),#107);
#28=STYLED_ITEM('',(#108),#109);
#29=STYLED_ITEM('',(#110),#111);
#30=STYLED_ITEM('',(#112),#113);
#31=STYLED_ITEM('',(#114),#115);
#32=STYLED_ITEM('',(#116),#117);
#33=STYLED_ITEM('',(#118),#119);
#34=STYLED_ITEM('',(#120),#121);
#35=STYLED_ITEM('',(#122),#123);
#36=STYLED_ITEM('',(#124),#125);
#37=STYLED_ITEM('',(#126),#127);
#38=STYLED_ITEM('',(#128),#129);
#39=STYLED_ITEM('',(#130),#131);
#40=STYLED_ITEM('',(#132),#133);
#41=STYLED_ITEM('',(#134),#135);
#42=STYLED_ITEM('',(#136),#137);
#43=STYLED_ITEM('',(#138),#139);
#44=STYLED_ITEM('',(#140),#141);
#45=STYLED_ITEM('',(#142),#143);
#46=STYLED_ITEM('',(#144),#145);
#47=STYLED_ITEM('',(#146),#147);
#48=STYLED_ITEM('',(#148),#149);
#49=STYLED_ITEM('',(#150),#151);
#50=STYLED_ITEM('',(#152),#153);
#51=STYLED_ITEM('',(#154),#155);
#52=STYLED_ITEM('',(#156),#157);
#53=STYLED_ITEM('',(#158),#159);
#54=STYLED_ITEM('',(#160),#161);
#55=STYLED_ITEM('',(#162),#163);
#56=STYLED_ITEM('',(#164),#165);
#57=STYLED_ITEM('',(#166),#167);
#58=STYLED_ITEM('',(#168),#169);
#59=STYLED_ITEM('',(#170),#171);
#60=STYLED_ITEM('',(#172),#173);
#61=STYLED_ITEM('',(#174),#175);
#62=APPLICATION_CONTEXT(' ');
#63=PRODUCT_CATEGORY('part','NONE');
#64=PRODUCT_RELATED_PRODUCT_CATEGORY('detail',' ',(#176));
#65=PRODUCT_DEFINITION_SHAPE('NONE','NONE',#177);
#66=ADVANCED_BREP_SHAPE_REPRESENTATION('1',(#139,#178),#10);
#67=APPLICATION_CONTEXT(' ');
#68=PRODUCT_CATEGORY('part','NONE');
#69=PRODUCT_RELATED_PRODUCT_CATEGORY('detail',' ',(#179));
#70=PRODUCT_DEFINITION_SHAPE('NONE','NONE',#180);
#71=ADVANCED_BREP_SHAPE_REPRESENTATION('2',(#123,#181),#10);
#74=UNCERTAINTY_MEASURE_WITH_UNIT(LENGTH_MEASURE(1.0E-006),#76,'','');
#76= (CONVERSION_BASED_UNIT('MILLIMETRE',#184)LENGTH_UNIT()NAMED_UNIT(#187));
#77= (NAMED_UNIT(#189)PLANE_ANGLE_UNIT()SI_UNIT($,.RADIAN.));
#78= (NAMED_UNIT(#189)SOLID_ANGLE_UNIT()SI_UNIT($,.STERADIAN.));
#80=PRESENTATION_STYLE_ASSIGNMENT((#195));
#81=EDGE_CURVE('',#91,#151,#196,.T.);
#82=PRESENTATION_STYLE_ASSIGNMENT((#197));
#83=VERTEX_POINT('',#198);
#84=PRESENTATION_STYLE_ASSIGNMENT((#199));
#85=ADVANCED_FACE('',(#200),#201,.T.);
#86=PRESENTATION_STYLE_ASSIGNMENT((#202));
#87=EDGE_CURVE('',#91,#153,#203,.T.);
#88=PRESENTATION_STYLE_ASSIGNMENT((#204));
#89=VERTEX_POINT('',#205);
#90=PRESENTATION_STYLE_ASSIGNMENT((#206));
#91=VERTEX_POINT('',#207);
#92=PRESENTATION_STYLE_ASSIGNMENT((#208));
#93=ADVANCED_FACE('',(#209),#210,.T.);
#94=PRESENTATION_STYLE_ASSIGNMENT((#211));
#95=VERTEX_POINT('',#212);
#96=PRESENTATION_STYLE_ASSIGNMENT((#213));
#97=EDGE_CURVE('',#157,#133,#214,.T.);
#98=PRESENTATION_STYLE_ASSIGNMENT((#215));
#99=EDGE_CURVE('',#89,#161,#216,.T.);
#100=PRESENTATION_STYLE_ASSIGNMENT((#217));
#101=EDGE_CURVE('',#83,#137,#218,.T.);
#102=PRESENTATION_STYLE_ASSIGNMENT((#219));
#103=VERTEX_POINT('',#220);
#104=PRESENTATION_STYLE_ASSIGNMENT((#221));
#105=EDGE_CURVE('',#119,#103,#222,.T.);
#106=PRESENTATION_STYLE_ASSIGNMENT((#223));
#107=EDGE_CURVE('',#95,#151,#224,.T.);
#108=PRESENTATION_STYLE_ASSIGNMENT((#225));
#109=EDGE_CURVE('',#161,#95,#226,.T.);
#110=PRESENTATION_STYLE_ASSIGNMENT((#227));
#111=EDGE_CURVE('',#89,#95,#228,.T.);
#112=PRESENTATION_STYLE_ASSIGNMENT((#229));
#113=EDGE_CURVE('',#151,#89,#230,.T.);
#114=PRESENTATION_STYLE_ASSIGNMENT((#231));
#115=ADVANCED_FACE('',(#232),#233,.T.);
#116=PRESENTATION_STYLE_ASSIGNMENT((#234));
#117=ADVANCED_FACE('',(#235),#236,.T.);
#118=PRESENTATION_STYLE_ASSIGNMENT((#237));
#119=VERTEX_POINT('',#238);
#120=PRESENTATION_STYLE_ASSIGNMENT((#239));
#121=VERTEX_POINT('',#240);
#122=PRESENTATION_STYLE_ASSIGNMENT((#241));
#123=MANIFOLD_SOLID_BREP('2',#242);
#124=PRESENTATION_STYLE_ASSIGNMENT((#243));
#125=EDGE_CURVE('',#137,#83,#244,.T.);
#126=PRESENTATION_STYLE_ASSIGNMENT((#245));
#127=EDGE_CURVE('',#161,#153,#246,.T.);
#128=PRESENTATION_STYLE_ASSIGNMENT((#247));
#129=EDGE_CURVE('',#103,#121,#248,.T.);
#130=PRESENTATION_STYLE_ASSIGNMENT((#249));
#131=EDGE_CURVE('',#153,#91,#250,.T.);
#132=PRESENTATION_STYLE_ASSIGNMENT((#251));
#133=VERTEX_POINT('',#252);
#134=PRESENTATION_STYLE_ASSIGNMENT((#253));
#135=EDGE_CURVE('',#133,#119,#254,.T.);
#136=PRESENTATION_STYLE_ASSIGNMENT((#255));
#137=VERTEX_POINT('',#256);
#138=PRESENTATION_STYLE_ASSIGNMENT((#257));
#139=MANIFOLD_SOLID_BREP('1',#258);
#140=PRESENTATION_STYLE_ASSIGNMENT((#259));
#141=ADVANCED_FACE('',(#260),#261,.T.);
#142=PRESENTATION_STYLE_ASSIGNMENT((#262));
#143=EDGE_CURVE('',#119,#133,#263,.T.);
#144=PRESENTATION_STYLE_ASSIGNMENT((#264));
#145=ADVANCED_FACE('',(#265),#266,.T.);
#146=PRESENTATION_STYLE_ASSIGNMENT((#267));
#147=EDGE_CURVE('',#165,#103,#268,.T.);
#148=PRESENTATION_STYLE_ASSIGNMENT((#269));
#149=EDGE_CURVE('',#137,#165,#270,.T.);
#150=PRESENTATION_STYLE_ASSIGNMENT((#271));
#151=VERTEX_POINT('',#272);
#152=PRESENTATION_STYLE_ASSIGNMENT((#273));
#153=VERTEX_POINT('',#274);
#154=PRESENTATION_STYLE_ASSIGNMENT((#275));
#155=ADVANCED_FACE('',(#276),#277,.T.);
#156=PRESENTATION_STYLE_ASSIGNMENT((#278));
#157=VERTEX_POINT('',#279);
#158=PRESENTATION_STYLE_ASSIGNMENT((#280));
#159=EDGE_CURVE('',#121,#157,#281,.T.);
#160=PRESENTATION_STYLE_ASSIGNMENT((#282));
#161=VERTEX_POINT('',#283);
#162=PRESENTATION_STYLE_ASSIGNMENT((#284));
#163=ADVANCED_FACE('',(#285),#286,.T.);
#164=PRESENTATION_STYLE_ASSIGNMENT((#287));
#165=VERTEX_POINT('',#288);
#166=PRESENTATION_STYLE_ASSIGNMENT((#289));
#167=EDGE_CURVE('',#157,#165,#290,.T.);
#168=PRESENTATION_STYLE_ASSIGNMENT((#291));
#169=ADVANCED_FACE('',(#292),#293,.T.);
#170=PRESENTATION_STYLE_ASSIGNMENT((#294));
#171=ADVANCED_FACE('',(#295),#296,.T.);
#172=PRESENTATION_STYLE_ASSIGNMENT((#297));
#173=ADVANCED_FACE('',(#298),#299,.T.);
#174=PRESENTATION_STYLE_ASSIGNMENT((#300));
#175=EDGE_CURVE('',#121,#83,#301,.T.);
#176=PRODUCT('1','1','PART-1-DESC',(#302));
#177=PRODUCT_DEFINITION('NONE','NONE',#303,#2);
#178=AXIS2_PLACEMENT_3D('',#304,#305,#306);
#179=PRODUCT('2','2','PART-2-DESC',(#307));
#180=PRODUCT_DEFINITION('NONE','NONE',#308,#6);
#181=AXIS2_PLACEMENT_3D('',#309,#310,#311);
#184=LENGTH_MEASURE_WITH_UNIT(LENGTH_MEASURE(1.0),#312);
#187=DIMENSIONAL_EXPONENTS(1.0,0.0,0.0,0.0,0.0,0.0,0.0);
#189=DIMENSIONAL_EXPONENTS(0.0,0.0,0.0,0.0,0.0,0.0,0.0);
#195=CURVE_STYLE('',#313,POSITIVE_LENGTH_MEASURE(1.0E-006),#314);
#196=LINE('',#315,#316);
#197=POINT_STYLE(' ',#317,POSITIVE_LENGTH_MEASURE(1.0E-006),#318);
#198=CARTESIAN_POINT('',(4.40858287376056E-016,-3.6,0.0));
#199=SURFACE_STYLE_USAGE(.BOTH.,#319);
#200=FACE_OUTER_BOUND('',#320,.T.);
#201=PLANE('',#321);
#202=CURVE_STYLE('',#322,POSITIVE_LENGTH_MEASURE(1.0E-006),#323);
#203=CIRCLE('',#324,4.0);
#204=POINT_STYLE(' ',#325,POSITIVE_LENGTH_MEASURE(1.0E-006),#326);
#205=CARTESIAN_POINT('',(0.0,-4.0,-56.0));
#206=POINT_STYLE(' ',#327,POSITIVE_LENGTH_MEASURE(1.0E-006),#328);
#207=CARTESIAN_POINT('',(2.0,3.46410161513775,-51.0));
#208=SURFACE_STYLE_USAGE(.BOTH.,#329);
#209=FACE_OUTER_BOUND('',#330,.T.);
#210=CYLINDRICAL_SURFACE('',#331,4.0);
#211=POINT_STYLE(' ',#332,POSITIVE_LENGTH_MEASURE(1.0E-006),#333);
#212=CARTESIAN_POINT('',(0.0,4.0,-56.0));
#213=CURVE_STYLE('',#334,POSITIVE_LENGTH_MEASURE(1.0E-006),#335);
#214=LINE('',#336,#337);
#215=CURVE_STYLE('',#338,POSITIVE_LENGTH_MEASURE(1.0E-006),#339);
#216=CIRCLE('',#340,4.0);
#217=CURVE_STYLE('',#341,POSITIVE_LENGTH_MEASURE(1.0E-006),#342);
#218=CIRCLE('',#343,3.6);
#219=POINT_STYLE(' ',#344,POSITIVE_LENGTH_MEASURE(1.0E-006),#345);
#220=CARTESIAN_POINT('',(4.0,4.89842541528951E-016,-0.399999999999999));
#221=CURVE_STYLE('',#346,POSITIVE_LENGTH_MEASURE(1.0E-006),#347);
#222=LINE('',#348,#349);
#223=CURVE_STYLE('',#350,POSITIVE_LENGTH_MEASURE(1.0E-006),#351);
#224=CIRCLE('',#352,4.0);
#225=CURVE_STYLE('',#353,POSITIVE_LENGTH_MEASURE(1.0E-006),#354);
#226=CIRCLE('',#355,4.0);
#227=CURVE_STYLE('',#356,POSITIVE_LENGTH_MEASURE(1.0E-006),#357);
#228=CIRCLE('',#358,4.00000000000001);
#229=CURVE_STYLE('',#359,POSITIVE_LENGTH_MEASURE(1.0E-006),#360);
#230=CIRCLE('',#361,4.0);
#231=SURFACE_STYLE_USAGE(.BOTH.,#362);
#232=FACE_OUTER_BOUND('',#363,.T.);
#233=CYLINDRICAL_SURFACE('',#364,4.0);
#234=SURFACE_STYLE_USAGE(.BOTH.,#365);
#235=FACE_OUTER_BOUND('',#366,.T.);
#236=CONICAL_SURFACE('',#367,3.8,0.78539816339745);
#237=POINT_STYLE(' ',#368,POSITIVE_LENGTH_MEASURE(1.0E-006),#369);
#238=CARTESIAN_POINT('',(4.0,4.89842541528951E-016,-51.0));
#239=POINT_STYLE(' ',#370,POSITIVE_LENGTH_MEASURE(1.0E-006),#371);
#240=CARTESIAN_POINT('',(4.89842541528951E-016,-4.0,-0.399999999999999));
#241=SURFACE_STYLE_USAGE(.BOTH.,#372);
#242=CLOSED_SHELL('',(#115,#145,#155,#173,#169));
#243=CURVE_STYLE('',#373,POSITIVE_LENGTH_MEASURE(1.0E-006),#374);
#244=CIRCLE('',#375,3.6);
#245=CURVE_STYLE('',#376,POSITIVE_LENGTH_MEASURE(1.0E-006),#377);
#246=LINE('',#378,#379);
#247=CURVE_STYLE('',#380,POSITIVE_LENGTH_MEASURE(1.0E-006),#381);
#248=CIRCLE('',#382,4.0);
#249=CURVE_STYLE('',#383,POSITIVE_LENGTH_MEASURE(1.0E-006),#384);
#250=CIRCLE('',#385,4.0);
#251=POINT_STYLE(' ',#386,POSITIVE_LENGTH_MEASURE(1.0E-006),#387);
#252=CARTESIAN_POINT('',(-4.0,0.0,-51.0));
#253=CURVE_STYLE('',#388,POSITIVE_LENGTH_MEASURE(1.0E-006),#389);
#254=CIRCLE('',#390,4.0);
#255=POINT_STYLE(' ',#391,POSITIVE_LENGTH_MEASURE(1.0E-006),#392);
#256=CARTESIAN_POINT('',(0.0,3.6,0.0));
#257=SURFACE_STYLE_USAGE(.BOTH.,#393);
#258=CLOSED_SHELL('',(#93,#163,#85,#117,#171,#141));
#259=SURFACE_STYLE_USAGE(.BOTH.,#394);
#260=FACE_OUTER_BOUND('',#395,.T.);
#261=PLANE('',#396);
#262=CURVE_STYLE('',#397,POSITIVE_LENGTH_MEASURE(1.0E-006),#398);
#263=CIRCLE('',#399,4.0);
#264=SURFACE_STYLE_USAGE(.BOTH.,#400);
#265=FACE_OUTER_BOUND('',#401,.T.);
#266=SPHERICAL_SURFACE('',#402,4.00000000000001);
#267=CURVE_STYLE('',#403,POSITIVE_LENGTH_MEASURE(1.0E-006),#404);
#268=CIRCLE('',#405,4.0);
#269=CURVE_STYLE('',#406,POSITIVE_LENGTH_MEASURE(1.0E-006),#407);
#270=LINE('',#408,#409);
#271=POINT_STYLE(' ',#410,POSITIVE_LENGTH_MEASURE(1.0E-006),#411);
#272=CARTESIAN_POINT('',(2.0,3.46410161513775,-56.0));
#273=POINT_STYLE(' ',#412,POSITIVE_LENGTH_MEASURE(1.0E-006),#413);
#274=CARTESIAN_POINT('',(-2.0,-3.46410161513776,-51.0));
#275=SURFACE_STYLE_USAGE(.BOTH.,#414);
#276=FACE_OUTER_BOUND('',#415,.T.);
#277=SPHERICAL_SURFACE('',#416,4.00000000000001);
#278=POINT_STYLE(' ',#417,POSITIVE_LENGTH_MEASURE(1.0E-006),#418);
#279=CARTESIAN_POINT('',(-4.0,-4.89842541528951E-016,-0.399999999999999));
#280=CURVE_STYLE('',#419,POSITIVE_LENGTH_MEASURE(1.0E-006),#420);
#281=CIRCLE('',#421,4.0);
#282=POINT_STYLE(' ',#422,POSITIVE_LENGTH_MEASURE(1.0E-006),#423);
#283=CARTESIAN_POINT('',(-2.0,-3.46410161513776,-56.0));
#284=SURFACE_STYLE_USAGE(.BOTH.,#424);
#285=FACE_OUTER_BOUND('',#425,.T.);
#286=CONICAL_SURFACE('',#426,3.8,0.78539816339745);
#287=POINT_STYLE(' ',#427,POSITIVE_LENGTH_MEASURE(1.0E-006),#428);
#288=CARTESIAN_POINT('',(0.0,4.0,-0.399999999999999));
#289=CURVE_STYLE('',#429,POSITIVE_LENGTH_MEASURE(1.0E-006),#430);
#290=CIRCLE('',#431,4.0);
#291=SURFACE_STYLE_USAGE(.BOTH.,#432);
#292=FACE_OUTER_BOUND('',#433,.T.);
#293=CYLINDRICAL_SURFACE('',#434,4.0);
#294=SURFACE_STYLE_USAGE(.BOTH.,#435);
#295=FACE_OUTER_BOUND('',#436,.T.);
#296=CYLINDRICAL_SURFACE('',#437,4.0);
#297=SURFACE_STYLE_USAGE(.BOTH.,#438);
#298=FACE_OUTER_BOUND('',#439,.T.);
#299=PLANE('',#440);
#300=CURVE_STYLE('',#441,POSITIVE_LENGTH_MEASURE(1.0E-006),#442);
#301=LINE('',#443,#444);
#302=PRODUCT_CONTEXT('',#62,'mechanical');
#303=PRODUCT_DEFINITION_FORMATION_WITH_SPECIFIED_SOURCE(' ','NONE',#176,.NOT_KNOWN.);
#304=CARTESIAN_POINT('',(0.0,0.0,0.0));
#305=DIRECTION('',(0.0,0.0,1.0));
#306=DIRECTION('',(1.0,0.0,0.0));
#307=PRODUCT_CONTEXT('',#67,'mechanical');
#308=PRODUCT_DEFINITION_FORMATION_WITH_SPECIFIED_SOURCE(' ','NONE',#179,.NOT_KNOWN.);
#309=CARTESIAN_POINT('',(0.0,0.0,0.0));
#310=DIRECTION('',(0.0,0.0,1.0));
#311=DIRECTION('',(1.0,0.0,0.0));
#312= (NAMED_UNIT(#187)LENGTH_UNIT()SI_UNIT(.MILLI.,.METRE.));
#313=DRAUGHTING_PRE_DEFINED_CURVE_FONT('continuous');
#314=COLOUR_RGB('',0.800000011920929,0.800000011920929,0.800000011920929);
#315=CARTESIAN_POINT('',(2.0,3.46410161513776,-53.5));
#316=VECTOR('',#446,1.0);
#317=PRE_DEFINED_MARKER('');
#318=COLOUR_RGB('',0.498039215803146,0.498039215803146,0.498039215803146);
#319=SURFACE_SIDE_STYLE('',(#447));
#320=EDGE_LOOP('',(#448,#449));
#321=AXIS2_PLACEMENT_3D('',#450,#451,#452);
#322=DRAUGHTING_PRE_DEFINED_CURVE_FONT('continuous');
#323=COLOUR_RGB('',0.800000011920929,0.800000011920929,0.800000011920929);
#324=AXIS2_PLACEMENT_3D('',#453,#454,#455);
#325=PRE_DEFINED_MARKER('');
#326=COLOUR_RGB('',0.800000011920929,0.800000011920929,0.800000011920929);
#327=PRE_DEFINED_MARKER('');
#328=COLOUR_RGB('',0.800000011920929,0.800000011920929,0.800000011920929);
#329=SURFACE_SIDE_STYLE('',(#456));
#330=EDGE_LOOP('',(#457,#458,#459,#460,#461));
#331=AXIS2_PLACEMENT_3D('',#462,#463,#464);
#332=PRE_DEFINED_MARKER('');
#333=COLOUR_RGB('',0.800000011920929,0.800000011920929,0.800000011920929);
#334=DRAUGHTING_PRE_DEFINED_CURVE_FONT('continuous');
#335=COLOUR_RGB('',0.498039215803146,0.498039215803146,0.498039215803146);
#336=CARTESIAN_POINT('',(-4.0,-4.89842541528951E-016,-45.5));
#337=VECTOR('',#465,1.0);
#338=DRAUGHTING_PRE_DEFINED_CURVE_FONT('continuous');
#339=COLOUR_RGB('',0.800000011920929,0.800000011920929,0.800000011920929);
#340=AXIS2_PLACEMENT_3D('',#466,#467,#468);
#341=DRAUGHTING_PRE_DEFINED_CURVE_FONT('continuous');
#342=COLOUR_RGB('',0.498039215803146,0.498039215803146,0.498039215803146);
#343=AXIS2_PLACEMENT_3D('',#469,#470,#471);
#344=PRE_DEFINED_MARKER('');
#345=COLOUR_RGB('',0.498039215803146,0.498039215803146,0.498039215803146);
#346=DRAUGHTING_PRE_DEFINED_CURVE_FONT('continuous');
#347=COLOUR_RGB('',0.498039215803146,0.498039215803146,0.498039215803146);
#348=CARTESIAN_POINT('',(4.0,4.89842541528951E-016,-45.5));
#349=VECTOR('',#472,1.0);
#350=DRAUGHTING_PRE_DEFINED_CURVE_FONT('continuous');
#351=COLOUR_RGB('',0.800000011920929,0.800000011920929,0.800000011920929);
#352=AXIS2_PLACEMENT_3D('',#473,#474,#475);
#353=DRAUGHTING_PRE_DEFINED_CURVE_FONT('continuous');
#354=COLOUR_RGB('',0.800000011920929,0.800000011920929,0.800000011920929);
#355=AXIS2_PLACEMENT_3D('',#476,#477,#478);
#356=DRAUGHTING_PRE_DEFINED_CURVE_FONT('continuous');
#357=COLOUR_RGB('',0.800000011920929,0.800000011920929,0.800000011920929);
#358=AXIS2_PLACEMENT_3D('',#479,#480,#481);
#359=DRAUGHTING_PRE_DEFINED_CURVE_FONT('continuous');
#360=COLOUR_RGB('',0.800000011920929,0.800000011920929,0.800000011920929);
#361=AXIS2_PLACEMENT_3D('',#482,#483,#484);
#362=SURFACE_SIDE_STYLE('',(#485));
#363=EDGE_LOOP('',(#486,#487,#488,#489,#490));
#364=AXIS2_PLACEMENT_3D('',#491,#492,#493);
#365=SURFACE_SIDE_STYLE('',(#494));
#366=EDGE_LOOP('',(#495,#496,#497,#498,#499));
#367=AXIS2_PLACEMENT_3D('',#500,#501,#502);
#368=PRE_DEFINED_MARKER('');
#369=COLOUR_RGB('',0.498039215803146,0.498039215803146,0.498039215803146);
#370=PRE_DEFINED_MARKER('');
#371=COLOUR_RGB('',0.498039215803146,0.498039215803146,0.498039215803146);
#372=SURFACE_SIDE_STYLE('',(#503));
#373=DRAUGHTING_PRE_DEFINED_CURVE_FONT('continuous');
#374=COLOUR_RGB('',0.498039215803146,0.498039215803146,0.498039215803146);
#375=AXIS2_PLACEMENT_3D('',#504,#505,#506);
#376=DRAUGHTING_PRE_DEFINED_CURVE_FONT('continuous');
#377=COLOUR_RGB('',0.800000011920929,0.800000011920929,0.800000011920929);
#378=CARTESIAN_POINT('',(-2.0,-3.46410161513776,-53.5));
#379=VECTOR('',#507,1.0);
#380=DRAUGHTING_PRE_DEFINED_CURVE_FONT('continuous');
#381=COLOUR_RGB('',0.498039215803146,0.498039215803146,0.498039215803146);
#382=AXIS2_PLACEMENT_3D('',#508,#509,#510);
#383=DRAUGHTING_PRE_DEFINED_CURVE_FONT('continuous');
#384=COLOUR_RGB('',0.800000011920929,0.800000011920929,0.800000011920929);
#385=AXIS2_PLACEMENT_3D('',#511,#512,#513);
#386=PRE_DEFINED_MARKER('');
#387=COLOUR_RGB('',0.498039215803146,0.498039215803146,0.498039215803146);
#388=DRAUGHTING_PRE_DEFINED_CURVE_FONT('continuous');
#389=COLOUR_RGB('',0.498039215803146,0.498039215803146,0.498039215803146);
#390=AXIS2_PLACEMENT_3D('',#514,#515,#516);
#391=PRE_DEFINED_MARKER('');
#392=COLOUR_RGB('',0.498039215803146,0.498039215803146,0.498039215803146);
#393=SURFACE_SIDE_STYLE('',(#517));
#394=SURFACE_SIDE_STYLE('',(#518));
#395=EDGE_LOOP('',(#519,#520));
#396=AXIS2_PLACEMENT_3D('',#521,#522,#523);
#397=DRAUGHTING_PRE_DEFINED_CURVE_FONT('continuous');
#398=COLOUR_RGB('',0.498039215803146,0.498039215803146,0.498039215803146);
#399=AXIS2_PLACEMENT_3D('',#524,#525,#526);
#400=SURFACE_SIDE_STYLE('',(#527));
#401=EDGE_LOOP('',(#528,#529,#530));
#402=AXIS2_PLACEMENT_3D('',#531,#532,#533);
#403=DRAUGHTING_PRE_DEFINED_CURVE_FONT('continuous');
#404=COLOUR_RGB('',0.498039215803146,0.498039215803146,0.498039215803146);
#405=AXIS2_PLACEMENT_3D('',#534,#535,#536);
#406=DRAUGHTING_PRE_DEFINED_CURVE_FONT('continuous');
#407=COLOUR_RGB('',0.498039215803146,0.498039215803146,0.498039215803146);
#408=CARTESIAN_POINT('',(-4.65350414452503E-016,3.8,-0.199999999999996));
#409=VECTOR('',#537,1.0);
#410=PRE_DEFINED_MARKER('');
#411=COLOUR_RGB('',0.800000011920929,0.800000011920929,0.800000011920929);
#412=PRE_DEFINED_MARKER('');
#413=COLOUR_RGB('',0.800000011920929,0.800000011920929,0.800000011920929);
#414=SURFACE_SIDE_STYLE('',(#538));
#415=EDGE_LOOP('',(#539,#540,#541));
#416=AXIS2_PLACEMENT_3D('',#542,#543,#544);
#417=PRE_DEFINED_MARKER('');
#418=COLOUR_RGB('',0.498039215803146,0.498039215803146,0.498039215803146);
#419=DRAUGHTING_PRE_DEFINED_CURVE_FONT('continuous');
#420=COLOUR_RGB('',0.498039215803146,0.498039215803146,0.498039215803146);
#421=AXIS2_PLACEMENT_3D('',#545,#546,#547);
#422=PRE_DEFINED_MARKER('');
#423=COLOUR_RGB('',0.800000011920929,0.800000011920929,0.800000011920929);
#424=SURFACE_SIDE_STYLE('',(#548));
#425=EDGE_LOOP('',(#549,#550,#551,#552,#553));
#426=AXIS2_PLACEMENT_3D('',#554,#555,#556);
#427=PRE_DEFINED_MARKER('');
#428=COLOUR_RGB('',0.498039215803146,0.498039215803146,0.498039215803146);
#429=DRAUGHTING_PRE_DEFINED_CURVE_FONT('continuous');
#430=COLOUR_RGB('',0.498039215803146,0.498039215803146,0.498039215803146);
#431=AXIS2_PLACEMENT_3D('',#557,#558,#559);
#432=SURFACE_SIDE_STYLE('',(#560));
#433=EDGE_LOOP('',(#561,#562,#563,#564,#565));
#434=AXIS2_PLACEMENT_3D('',#566,#567,#568);
#435=SURFACE_SIDE_STYLE('',(#569));
#436=EDGE_LOOP('',(#570,#571,#572,#573,#574));
#437=AXIS2_PLACEMENT_3D('',#575,#576,#577);
#438=SURFACE_SIDE_STYLE('',(#578));
#439=EDGE_LOOP('',(#579,#580));
#440=AXIS2_PLACEMENT_3D('',#581,#582,#583);
#441=DRAUGHTING_PRE_DEFINED_CURVE_FONT('continuous');
#442=COLOUR_RGB('',0.498039215803146,0.498039215803146,0.498039215803146);
#443=CARTESIAN_POINT('',(4.65350414452503E-016,-3.8,-0.199999999999996));
#444=VECTOR('',#584,1.0);
#446=DIRECTION('',(0.0,0.0,-1.0));
#447=SURFACE_STYLE_FILL_AREA(#585);
#448=ORIENTED_EDGE('',*,*,#125,.F.);
#449=ORIENTED_EDGE('',*,*,#101,.F.);
#450=CARTESIAN_POINT('',(0.0,1.8,0.0));
#451=DIRECTION('',(-0.0,0.0,1.0));
#452=DIRECTION('',(0.0,-1.0,0.0));
#453=CARTESIAN_POINT('',(0.0,0.0,-51.0));
#454=DIRECTION('',(0.0,0.0,-1.0));
#455=DIRECTION('',(0.5,0.866025403784439,0.0));
#456=SURFACE_STYLE_FILL_AREA(#586);
#457=ORIENTED_EDGE('',*,*,#97,.F.);
#458=ORIENTED_EDGE('',*,*,#167,.T.);
#459=ORIENTED_EDGE('',*,*,#147,.T.);
#460=ORIENTED_EDGE('',*,*,#105,.F.);
#461=ORIENTED_EDGE('',*,*,#135,.F.);
#462=CARTESIAN_POINT('',(0.0,0.0,-45.5));
#463=DIRECTION('',(-0.0,-0.0,1.0));
#464=DIRECTION('',(-1.0,0.0,0.0));
#465=DIRECTION('',(0.0,0.0,-1.0));
#466=CARTESIAN_POINT('',(0.0,0.0,-56.0));
#467=DIRECTION('',(0.0,0.0,-1.0));
#468=DIRECTION('',(0.5,0.866025403784439,0.0));
#469=CARTESIAN_POINT('',(0.0,0.0,0.0));
#470=DIRECTION('',(0.0,0.0,-1.0));
#471=DIRECTION('',(0.0,1.0,0.0));
#472=DIRECTION('',(-0.0,-0.0,1.0));
#473=CARTESIAN_POINT('',(0.0,0.0,-56.0));
#474=DIRECTION('',(0.0,0.0,-1.0));
#475=DIRECTION('',(0.5,0.866025403784439,0.0));
#476=CARTESIAN_POINT('',(0.0,0.0,-56.0));
#477=DIRECTION('',(0.0,0.0,-1.0));
#478=DIRECTION('',(0.5,0.866025403784439,0.0));
#479=CARTESIAN_POINT('',(0.0,0.0,-56.0));
#480=DIRECTION('',(1.0,0.0,1.22460635382238E-016));
#481=DIRECTION('',(-1.22460635382238E-016,0.0,1.0));
#482=CARTESIAN_POINT('',(0.0,0.0,-56.0));
#483=DIRECTION('',(0.0,0.0,-1.0));
#484=DIRECTION('',(0.5,0.866025403784439,0.0));
#485=SURFACE_STYLE_FILL_AREA(#587);
#486=ORIENTED_EDGE('',*,*,#81,.F.);
#487=ORIENTED_EDGE('',*,*,#87,.T.);
#488=ORIENTED_EDGE('',*,*,#127,.F.);
#489=ORIENTED_EDGE('',*,*,#99,.F.);
#490=ORIENTED_EDGE('',*,*,#113,.F.);
#491=CARTESIAN_POINT('',(0.0,0.0,-53.5));
#492=DIRECTION('',(-0.0,-0.0,1.0));
#493=DIRECTION('',(0.5,0.866025403784439,0.0));
#494=SURFACE_STYLE_FILL_AREA(#588);
#495=ORIENTED_EDGE('',*,*,#149,.T.);
#496=ORIENTED_EDGE('',*,*,#167,.F.);
#497=ORIENTED_EDGE('',*,*,#159,.F.);
#498=ORIENTED_EDGE('',*,*,#175,.T.);
#499=ORIENTED_EDGE('',*,*,#101,.T.);
#500=CARTESIAN_POINT('',(0.0,0.0,-0.199999999999996));
#501=DIRECTION('',(0.0,-0.0,-1.0));
#502=DIRECTION('',(0.0,1.0,0.0));
#503=SURFACE_STYLE_FILL_AREA(#589);
#504=CARTESIAN_POINT('',(0.0,0.0,0.0));
#505=DIRECTION('',(0.0,0.0,-1.0));
#506=DIRECTION('',(0.0,1.0,0.0));
#507=DIRECTION('',(-0.0,-0.0,1.0));
#508=CARTESIAN_POINT('',(0.0,0.0,-0.399999999999999));
#509=DIRECTION('',(0.0,0.0,-1.0));
#510=DIRECTION('',(0.0,1.0,0.0));
#511=CARTESIAN_POINT('',(0.0,0.0,-51.0));
#512=DIRECTION('',(0.0,0.0,-1.0));
#513=DIRECTION('',(0.5,0.866025403784439,0.0));
#514=CARTESIAN_POINT('',(0.0,0.0,-51.0));
#515=DIRECTION('',(0.0,0.0,-1.0));
#516=DIRECTION('',(-1.0,0.0,0.0));
#517=SURFACE_STYLE_FILL_AREA(#590);
#518=SURFACE_STYLE_FILL_AREA(#591);
#519=ORIENTED_EDGE('',*,*,#135,.T.);
#520=ORIENTED_EDGE('',*,*,#143,.T.);
#521=CARTESIAN_POINT('',(-2.0,0.0,-51.0));
#522=DIRECTION('',(0.0,0.0,-1.0));
#523=DIRECTION('',(-1.0,0.0,0.0));
#524=CARTESIAN_POINT('',(0.0,0.0,-51.0));
#525=DIRECTION('',(0.0,0.0,-1.0));
#526=DIRECTION('',(-1.0,0.0,0.0));
#527=SURFACE_STYLE_FILL_AREA(#592);
#528=ORIENTED_EDGE('',*,*,#111,.F.);
#529=ORIENTED_EDGE('',*,*,#99,.T.);
#530=ORIENTED_EDGE('',*,*,#109,.T.);
#531=CARTESIAN_POINT('',(0.0,0.0,-56.0));
#532=DIRECTION('',(0.0,1.0,0.0));
#533=DIRECTION('',(0.0,0.0,-1.0));
#534=CARTESIAN_POINT('',(0.0,0.0,-0.399999999999999));
#535=DIRECTION('',(0.0,0.0,-1.0));
#536=DIRECTION('',(0.0,1.0,0.0));
#537=DIRECTION('',(-8.65927457071937E-017,0.707106781186549,-0.707106781186546));
#538=SURFACE_STYLE_FILL_AREA(#593);
#539=ORIENTED_EDGE('',*,*,#111,.T.);
#540=ORIENTED_EDGE('',*,*,#107,.T.);
#541=ORIENTED_EDGE('',*,*,#113,.T.);
#542=CARTESIAN_POINT('',(0.0,0.0,-56.0));
#543=DIRECTION('',(0.0,1.0,0.0));
#544=DIRECTION('',(0.0,0.0,-1.0));
#545=CARTESIAN_POINT('',(0.0,0.0,-0.399999999999999));
#546=DIRECTION('',(0.0,0.0,-1.0));
#547=DIRECTION('',(0.0,1.0,0.0));
#548=SURFACE_STYLE_FILL_AREA(#594);
#549=ORIENTED_EDGE('',*,*,#149,.F.);
#550=ORIENTED_EDGE('',*,*,#125,.T.);
#551=ORIENTED_EDGE('',*,*,#175,.F.);
#552=ORIENTED_EDGE('',*,*,#129,.F.);
#553=ORIENTED_EDGE('',*,*,#147,.F.);
#554=CARTESIAN_POINT('',(0.0,0.0,-0.199999999999996));
#555=DIRECTION('',(0.0,-0.0,-1.0));
#556=DIRECTION('',(0.0,1.0,0.0));
#557=CARTESIAN_POINT('',(0.0,0.0,-0.399999999999999));
#558=DIRECTION('',(0.0,0.0,-1.0));
#559=DIRECTION('',(0.0,1.0,0.0));
#560=SURFACE_STYLE_FILL_AREA(#595);
#561=ORIENTED_EDGE('',*,*,#81,.T.);
#562=ORIENTED_EDGE('',*,*,#107,.F.);
#563=ORIENTED_EDGE('',*,*,#109,.F.);
#564=ORIENTED_EDGE('',*,*,#127,.T.);
#565=ORIENTED_EDGE('',*,*,#131,.T.);
#566=CARTESIAN_POINT('',(0.0,0.0,-53.5));
#567=DIRECTION('',(-0.0,-0.0,1.0));
#568=DIRECTION('',(0.5,0.866025403784439,0.0));
#569=SURFACE_STYLE_FILL_AREA(#596);
#570=ORIENTED_EDGE('',*,*,#97,.T.);
#571=ORIENTED_EDGE('',*,*,#143,.F.);
#572=ORIENTED_EDGE('',*,*,#105,.T.);
#573=ORIENTED_EDGE('',*,*,#129,.T.);
#574=ORIENTED_EDGE('',*,*,#159,.T.);
#575=CARTESIAN_POINT('',(0.0,0.0,-45.5));
#576=DIRECTION('',(-0.0,-0.0,1.0));
#577=DIRECTION('',(-1.0,0.0,0.0));
#578=SURFACE_STYLE_FILL_AREA(#597);
#579=ORIENTED_EDGE('',*,*,#87,.F.);
#580=ORIENTED_EDGE('',*,*,#131,.F.);
#581=CARTESIAN_POINT('',(1.0,1.73205080756888,-51.0));
#582=DIRECTION('',(0.0,0.0,1.0));
#583=DIRECTION('',(-0.5,-0.866025403784439,0.0));
#584=DIRECTION('',(-8.65927457071937E-017,0.707106781186549,0.707106781186546));
#585=FILL_AREA_STYLE('',(#598));
#586=FILL_AREA_STYLE('',(#599));
#587=FILL_AREA_STYLE('',(#600));
#588=FILL_AREA_STYLE('',(#601));
#589=FILL_AREA_STYLE('',(#602));
#590=FILL_AREA_STYLE('',(#603));
#591=FILL_AREA_STYLE('',(#604));
#592=FILL_AREA_STYLE('',(#605));
#593=FILL_AREA_STYLE('',(#606));
#594=FILL_AREA_STYLE('',(#607));
#595=FILL_AREA_STYLE('',(#608));
#596=FILL_AREA_STYLE('',(#609));
#597=FILL_AREA_STYLE('',(#610));
#598=FILL_AREA_STYLE_COLOUR('',#611);
#599=FILL_AREA_STYLE_COLOUR('',#612);
#600=FILL_AREA_STYLE_COLOUR('',#613);
#601=FILL_AREA_STYLE_COLOUR('',#614);
#602=FILL_AREA_STYLE_COLOUR('',#615);
#603=FILL_AREA_STYLE_COLOUR('',#616);
#604=FILL_AREA_STYLE_COLOUR('',#617);
#605=FILL_AREA_STYLE_COLOUR('',#618);
#606=FILL_AREA_STYLE_COLOUR('',#619);
#607=FILL_AREA_STYLE_COLOUR('',#620);
#608=FILL_AREA_STYLE_COLOUR('',#621);
#609=FILL_AREA_STYLE_COLOUR('',#622);
#610=FILL_AREA_STYLE_COLOUR('',#623);
#611=COLOUR_RGB('',0.498039215803146,0.498039215803146,0.498039215803146);
#612=COLOUR_RGB('',0.498039215803146,0.498039215803146,0.498039215803146);
#613=COLOUR_RGB('',0.800000011920929,0.800000011920929,0.800000011920929);
#614=COLOUR_RGB('',0.498039215803146,0.498039215803146,0.498039215803146);
#615=COLOUR_RGB('',0.800000011920929,0.800000011920929,0.800000011920929);
#616=COLOUR_RGB('',0.498039215803146,0.498039215803146,0.498039215803146);
#617=COLOUR_RGB('',0.498039215803146,0.498039215803146,0.498039215803146);
#618=COLOUR_RGB('',0.800000011920929,0.800000011920929,0.800000011920929);
#619=COLOUR_RGB('',0.800000011920929,0.800000011920929,0.800000011920929);
#620=COLOUR_RGB('',0.498039215803146,0.498039215803146,0.498039215803146);
#621=COLOUR_RGB('',0.800000011920929,0.800000011920929,0.800000011920929);
#622=COLOUR_RGB('',0.498039215803146,0.498039215803146,0.498039215803146);
#623=COLOUR_RGB('',0.800000011920929,0.800000011920929,0.800000011920929);
#624=AXIS2_PLACEMENT_3D('PCS',#625,#626,#627);
#625=CARTESIAN_POINT('',(0.0,0.0,0.0));
#626=DIRECTION('',(0.0,0.0,1.0));
#627=DIRECTION('',(1.0,0.0,0.0));
#628=AXIS2_PLACEMENT_3D('MCS',#629,#630,#631);
#629=CARTESIAN_POINT('',(0.0,0.0,-36.0));
#630=DIRECTION('',(0.0,0.0,1.0));
#631=DIRECTION('',(1.0,0.0,0.0));
#632=AXIS2_PLACEMENT_3D('CIP',#633,#634,#635);
#633=CARTESIAN_POINT('',(0.0,0.0,-60.0));
#634=DIRECTION('',(0.0,0.0,1.0));
#635=DIRECTION('',(1.0,0.0,0.0));
#636=CONSTRUCTIVE_GEOMETRY_REPRESENTATION_RELATIONSHIP('coordinate systems',$,#66,#637);
#637=CONSTRUCTIVE_GEOMETRY_REPRESENTATION('coordinate systems',(#624,#628,#632),#10);
ENDSEC;
END-ISO-10303-21;
